G Minor Pentatonic

Chords

01234567891011121314151617181920212223
E
B
G
D
A
E
B
0 1 2 3 4 5 6 7 8 9 10 11 12 13 14 15 16 17 18 19 20 21 22 23
(/) Slide Up  (\) Slide Down  (h) Hammer On  (p) Pull Off  (b) Bend (r) Release (v) Vibrato

Stave 1:

E|--------------------------------3--6--------------------------------6--8-------------------------------------8--11--
B|--------------------------3--6--------------------------------6--8------------------------------------8--11---------
G|--------------------3--5--------------------------------5--7-----------------------------------7--10----------------
D|--------------3--5--------------------------------5--8----------------------------------8--10-----------------------
A|--------3--5--------------------------------5--8---------------------------------8--10------------------------------
E|--3--6--------------------------------6--8--------------------------------8--10-------------------------------------

Stave 2:

E|------------------------------------------10--13------------------------------------------13--15--
B|----------------------------------11--13------------------------------------------13--15----------
G|--------------------------10--12------------------------------------------12--15------------------
D|------------------10--12------------------------------------------12--15--------------------------
A|----------10--13------------------------------------------13--15----------------------------------
E|--10--13------------------------------------------13--15------------------------------------------

							http://www.guitartabcreator.com
Instruments
{"strings":[[[".",".",".",".",".",".",".",".",".",".",3,6,".",".",".",".",".",".",".",".",".",".",6,8,".",".",".",".",".",".",".",".",".",".",8,11],[".",".",".",".",".",".",".",".",3,6,".",".",".",".",".",".",".",".",".",".",6,8,".",".",".",".",".",".",".",".",".",".",8,11,".","."],[".",".",".",".",".",".",3,5,".",".",".",".",".",".",".",".",".",".",5,7,".",".",".",".",".",".",".",".",".",".",7,10,".",".",".","."],[".",".",".",".",3,5,".",".",".",".",".",".",".",".",".",".",5,8,".",".",".",".",".",".",".",".",".",".",8,10,".",".",".",".",".","."],[".",".",3,5,".",".",".",".",".",".",".",".",".",".",5,8,".",".",".",".",".",".",".",".",".",".",8,10,".",".",".",".",".",".",".","."],[3,6,".",".",".",".",".",".",".",".",".",".",6,8,".",".",".",".",".",".",".",".",".",".",8,10,".",".",".",".",".",".",".",".",".","."]],[[".",".",".",".",".",".",".",".",".",".",10,13,".",".",".",".",".",".",".",".",".",".",13,15],[".",".",".",".",".",".",".",".",11,13,".",".",".",".",".",".",".",".",".",".",13,15,".","."],[".",".",".",".",".",".",10,12,".",".",".",".",".",".",".",".",".",".",12,15,".",".",".","."],[".",".",".",".",10,12,".",".",".",".",".",".",".",".",".",".",12,15,".",".",".",".",".","."],[".",".",10,13,".",".",".",".",".",".",".",".",".",".",13,15,".",".",".",".",".",".",".","."],[10,13,".",".",".",".",".",".",".",".",".",".",13,15,".",".",".",".",".",".",".",".",".","."]]],"numberofstrings":6,"notes":["E","B","G","D","A","E","B"],"capo":0,"stringnotes":["E4","B3","G3","D3","A2","E2"],"comments":["Stave 1:","Stave 2:"],"timing":[["W","W","W","W","W","W","W","W","W","W","W","W","W","W","W","W","W","W","W","W","W","W","W","W","W","W","W","W","W","W","W","W","W","W","W","W"],["W","W","W","W","W","W","W","W","W","W","W","W","W","W","W","W","W","W","W","W","W","W","W","W"]],"timingvisible":false,"tabcounter":24,"stave":1,"totalstaves":2,"instrument":"6guitar","selectedtuning":"6_standard","version":"13"}

Member for

1 month 1 week
Submitted by jddupr1 on Wed, 2020-10-07 12:40