winter tori amos

Chords

01234567891011121314151617181920212223
E
B
G
D
A
E
B
0 1 2 3 4 5 6 7 8 9 10 11 12 13 14 15 16 17 18 19 20 21 22 23
(/) Slide Up  (\) Slide Down  (h) Hammer On  (p) Pull Off  (b) Bend (r) Release (v) Vibrato

Stave 1:

E|----------------------------------------------------------
B|--------------------------6--7-----9----------------------
G|--------8--6h8p6-----6h8--------8-----8--6-----8----------
D|-----8------------8-------------------------8-----6h8-----
A|--6-------------------------------------------------------
E|----------------------------------------------------------

Stave 2:

E|---------------------------------------------
B|--------------------------6--6h7--6----------
G|--------8--6h8p6-----6h8-------------8-------
D|-----8------------8---------------------6h8--
A|--6------------------------------------------
E|---------------------------------------------

Stave 3:

E|--
B|--
G|--
D|--
A|--
E|--

							http://www.guitartabcreator.com
Instruments
{"strings":[[[".",".",".",".",".",".",".",".",".",".",".",".",".",".",".",".",".",".",".",".",".",".",".","."],[".",".",".",".",".",".",".",".",".",".",".",".",6,7,".",9,".",".",".",".",".",".",".","."],[".",".",8,6,"h",8,"p",6,".",6,"h",8,".",".",8,".",8,6,".",8,".",".",".","."],[".",8,".",".",".",".",".",".",8,".",".",".",".",".",".",".",".",".",8,".",6,"h",8,"."],[6,".",".",".",".",".",".",".",".",".",".",".",".",".",".",".",".",".",".",".",".",".",".","."],[".",".",".",".",".",".",".",".",".",".",".",".",".",".",".",".",".",".",".",".",".",".",".","."]],[[".",".",".",".",".",".",".",".",".",".",".",".",".",".",".",".",".",".",".",".","."],[".",".",".",".",".",".",".",".",".",".",".",".",6,6,"h",7,6,".",".",".","."],[".",".",8,6,"h",8,"p",6,".",6,"h",8,".",".",".",".",".",8,".",".","."],[".",8,".",".",".",".",".",".",8,".",".",".",".",".",".",".",".",".",6,"h",8],[6,".",".",".",".",".",".",".",".",".",".",".",".",".",".",".",".",".",".",".","."],[".",".",".",".",".",".",".",".",".",".",".",".",".",".",".",".",".",".",".",".","."]],[[],[],[],[],[],[]]],"numberofstrings":6,"notes":["E","B","G","D","A","E","B"],"capo":0,"stringnotes":["E4","B3","G3","D3","A2","E2"],"comments":["Stave 1:","Stave 2:","Stave 3:"],"timing":[[null,null,null,null,null,"W",null,"W","W","W",null,"W","W","W","W","W","W","W","W","W","W",null,"W"],["W","W","W","W",null,"W","W","W","W","W",null,"W","W","W",null,"W","W","W","W",null,"W"],[]],"timingvisible":false,"tabcounter":0,"stave":2,"totalstaves":3,"instrument":"6guitar","selectedtuning":"6_standard","version":"13"}

Member for

1 month
Submitted by jcollingridge on Thu, 2020-09-24 06:09