Sound will begin in 5 seconds

Comfortably Numb - Solo 1

01234567891011121314151617181920212223
E
B
G
D
A
E
B
0 1 2 3 4 5 6 7 8 9 10 11 12 13 14 15 16 17 18 19 20 21 22 23
Song Science #1: How Pros Use 6 Chords to Write Hit Songs
(/) Slide Up  (\) Slide Down  (h) Hammer On  (p) Pull Off  (b) Bend (r) Release (v) Vibrato

Stave 1:

E|--14v--12--|--14b15r14----------|----------|--------------------|--
B|-----------|------------15b17v--|--15--14--|--14----------------|--
G|-----------|--------------------|----------|------14------------|--
D|-----------|--------------------|----------|----------14v--12v--|--
A|-----------|--------------------|----------|--------------------|--
E|-----------|--------------------|----------|--------------------|--

Stave 2:

E|--14b15r14--|-----------------|-----------------------|---------|--
B|------------|--15b17v--15p14--|-----------------------|---------|--
G|------------|-----------------|--14-------------------|--7/12v--|--
D|------------|-----------------|------14\12--11--9--7--|---------|--
A|------------|-----------------|-----------------------|---------|--
E|------------|-----------------|-----------------------|---------|--

Stave 3:

E|--------------------|---------|--------------------|---------|--
B|--------------------|---------|--------------------|---------|--
G|--11----------------|---------|--9p7-----7--9--11--|--11b12--|--
D|------14--12--11\9--|--9--7v--|-------9------------|---------|--
A|--------------------|---------|--------------------|---------|--
E|--------------------|---------|--------------------|---------|--

Stave 4:

E|--15--14--12--------------|--------------|----------------|--
B|--------------15--12------|--------------|----------------|--
G|----------------------12--|--------------|---------9b11v--|--
D|--------------------------|--12v--10\9v--|--10\7v---------|--
A|--------------------------|--------------|----------------|--
E|--------------------------|--------------|----------------|--

Stave 5:

E|--------------|-------
B|--------------|-------
G|--9p7h9-------|-------
D|---------7/9--|--\7v--
A|--------------|-------
E|--------------|-------

http://www.guitartabcreator.com
Guitar Tab Creator is intended to store guitar tab created through the tool. It currently does not support in-line text editing. Any text you place in here will be lost. If you need to comment on your tab, please use the "Tab Notes" section located below.