Sound will begin in 5 seconds

Love Story(Where Do I Begin)

Chords
01234567891011121314151617181920212223
E
B
G
D
A
E
B
0 1 2 3 4 5 6 7 8 9 10 11 12 13 14 15 16 17 18 19 20 21 22 23
Song Science #1: How Pros Use 6 Chords to Write Hit Songs
(/) Slide Up  (\) Slide Down  (h) Hammer On  (p) Pull Off  (b) Bend (r) Release (v) Vibrato

Capo Fret 4

Stave 1:

E|--------------------------------------------------------------------------------------------
B|-----------------1--------1p0--1-----1-----------------1p0--1-------------------------0--0--
G|-------------------------------------2-----2---------------------------------------------1--
D|--2--3--5--3--2-----2--2----------2-----2--------2--2----------2--2--2h3--2--0--0--0--------
A|-----------------0-------------0--------------0-------------0--------0----------------------
E|-----------------------------------------------------------------------------0--------0--0--

Stave 2:

E|---------------------------------------------------------------------------------------------
B|-----0-----------------0--0------------------------------------0-----------------------------
G|-----1-----1--------------1-------------------------0h2--2-----2-----2-----------2--2--------
D|--0-----0--------0--0--------0--0--0h2--0-------------------0-----3-----------------------0--
A|-------------------------------------------3--3--3-------3-----------------3--3--------3-----
E|--------------0-----------0---------------------------------------------1--------------------

Stave 3:

E|----------------------------------------------------------------------------------------------
B|-----------------------0-------------------------0h1--------0h1--------0h1--------1-----------
G|--------------1--1-----1-----2--4----------0----------2----------2----------2-----------------
D|-----0--------------0--------------3--3p2-----2----------2----------2----------2-----2--2--2--
A|--3--2--2--2-----2--------------------0-------------------------------------------0-----------
E|--------------------------0-------------------------------------------------------------------

Stave 4:

E|---------------------------------------------------------------------------------------------
B|--1p0--1-----1-----------------1--1-------------------------0--0-----0-----------------0--0--
G|-------------2-----2----------------------------------------1--1-----1-----1-----------------
D|----------2-----2--------2--2--------2--2--2h3--2--0--0--0--------0-----0--------0--0--------
A|--0----0--------------0-----------0--------0-------------------------------------------------
E|---------------------------------------------------0--------0--0--------------0-----------0--

Stave 5:

E|---------------------------------------------------------------------------------------------
B|-------------------------------0-------------------------------------------------------------
G|----------------------2--2--------2-----2-----------2--2-----------------------------1p0--1--
D|--0--0h2--0-----------------3--------3--------------------------0--------0-------------------
A|-------------3--3--3-----3--------------------3--3--------3--3-----3--3-----2--2--2----------
E|-------------------------------------------1----------------------------------------------0--

Stave 6:

E|--------------------------------------------------0-----1-----1--------1-----1-----------------
B|--0-----------------2--2-----2-----2--------2--3--------------3-----3--------3--------0--------
G|--1--------2--4--1--2--------------------------------2-----2-----2--------2-----2--2-----2--0--
D|--------------------2-----2-----2-----------------------0--------------0-----------------------
A|--------------------0-----------------0--0-----------------------------------------------------
E|-----0--0--------------------------------------------------------------------------3-----3-----

Stave 7:

E|--------------0-----0--------0-----0----------------0-----0------------------------------------
B|--0--3--6--3--------1-----1-------------------------1--1-----0--0h3--3-----3--3--0--0--0h3--0--
G|-----------------0-----0--------0-----0--0h2--2--2----------------------1----------------------
D|-----------------------------------------------------------------------------------------------
A|--------------3--------------------------0----0------------------------------------------------
E|----------------------------------------------------------------0-------------0----------------

Stave 8:

E|-------------------0--0h1--1--------1-----1-----------------------------------------------------
B|--1--3--3/5-----1----------3-----3--------3--------0--0-----5--3--0-----------1-----------------
G|--2----------2----------------2--------2-----2--2--------0-----------2--0--0--------------------
D|----------------------0-------------0--------------------------------------2-----2--2--2--3--5--
A|--0------------------------------------------------------------------------3--------3-----------
E|------------------------------------------------3-----3-----------------------------------------

Stave 9:

E|-----------------------------------------------------------------------------------
B|-----------1-----------------------------------------------------------------------
G|--4--2-----2--2--0-----------------1-----1--1--1--2--2--1-----1--------------------
D|--------2-----------3--2--1-----0--------0-----------------2-----1--2--3--5--3--2--
A|-----0-----------------------------------------------------------------------------
E|-----------------------------0--------0--------0-----0-----0-----------------------

Stave 10:

E|--------------------------------------------------------------------------------------------
B|--1--------1p0--1-----1-----------------1p0--1-------------------------0--0-----0-----------
G|----------------------2-----2---------------------------------------------------1-----1-----
D|-----2--2----------2-----2--------2--2----------2--2--2h3--2--0--0--0--------0-----0--------
A|--0-------------0--------------0-------------0--------0-------------------------------------
E|--------------------------------------------------------------0--------0--0--------------0--

Stave 11:

E|--------------------------------------------------------------------------------------------
B|--------0--0--------------------------------0-----------1-----------------------------------
G|---------------------------------0h2--2-----2-----2--------------2--2-----------------------
D|--0--0--------0--0h2p0-------------------3-----3-----3-----------------------0--------0-----
A|------------------------3--3--3-------3--------------------3--3-----3--3--3-----3--3-----2--
E|-----------0--------------------------------------------1-----------------------------------

Stave 12:

E|----------------------------------------------------------------------
B|----------------0--------------------------0--1--0--1--3--1--0--1-----
G|--------1p0--1-----------2--4--1--------2--------------------------2--
D|-------------------------------------2-----------------------------2--
A|--2--2----------------------------0--------------------------------0--
E|-------------0-----0--0-----------------------------------------------

http://www.guitartabcreator.com
Guitar Tab Creator is intended to store guitar tab created through the tool. It currently does not support in-line text editing. Any text you place in here will be lost. If you need to comment on your tab, please use the "Tab Notes" section located below.