Sound will begin in 5 seconds

Imagine - John Lenon

Chords
01234567891011121314151617181920212223
E
B
G
D
A
E
B
0 1 2 3 4 5 6 7 8 9 10 11 12 13 14 15 16 17 18 19 20 21 22 23
Song Science #1: How Pros Use 6 Chords to Write Hit Songs
(/) Slide Up  (\) Slide Down  (h) Hammer On  (p) Pull Off  (b) Bend (r) Release (v) Vibrato

Stave 1:

E|--------------------------------------------------------------------------------------------
B|--------------3-----------------------3-----------------------------2-----2-----0-----------
G|--------2-----------2-----------2-----------2-----------2-----2-----2-----2-----0-----------
D|-----4-----4-----4-----4-----4-----4-----4-----4-----4-----4-----4-----4-----0-----0-----0--
A|--------------------------------------------------------------------------------------------
D|--0-----------------------0-----------------------0-----------0-----------5-----------5-----

Stave 2:

E|--------------------------------------------------------------------------------------------
B|--0--1--2--3--------------------------2-----0-----------------0--1--2--3--------------------
G|--------------2-----2--0-----0--2-----2-----0-----0-----------------------2-----2-----2-----
D|-----------------4--------4--------4-----4-----0-----0-----0-----------------4-----4-----4--
A|--------------------------------------------------------------------------------------------
D|--------------0-----------------0-----------5-----------5-----------------0-----------0-----

Stave 3:

E|--------------------------------------------------------------------------------------------
B|--2-----2-----0-----------0--1--2--3--------------------------0-----------------0-----------
G|--2-----2-----0-----------------------2-----2--0-----0--2-----0-----0-----------0-----------
D|-----4-----0-----0-----0-----------------4--------4--------4-----0-----------0-----------0--
A|--------------------------------------------------------------------------------------------
D|--------5-----------5-----------------0-----------------0-----5--------5--4--------4--5-----

Stave 4:

E|--------------2-----2-----0-----------------------------------------0--2--5--2--0-----------
B|--3--0--3-----------0-----0--------0--3--0--2--------2--2--3--3--5-----------------3--------
G|--------------------0-----0--------------------2--2-----2--4--4--6-----------------------2--
D|-----------2-----2-----2-----2-----------------2--2-----------------------------------4-----
A|--------------------------------------------0-----------0-----------------------------------
D|--------4-----------2-----------2--------------------------------------------------0--------

Stave 5:

E|--------------------------------------------------------------------------------------------
B|-----------2-----2-----0-----------0--1--2--3--------------------------2-----0--------------
G|-----2-----2-----2-----0-----------------------2-----2--0-----0--2-----2-----0-----0--------
D|--4-----4-----4-----0-----0-----0-----------------4--------4--------4-----4-----0-----0-----
A|--------------------------------------------------------------------------------------------
D|-----0-----------5-----------5-----------------0-----------------0-----------5-----------5--

Stave 6:

E|--------------------------------------------------------------------------------------------
B|-----0--1--2--3--------------------2-----2-----0-----------0--1--2--3-----------------------
G|-----------------2-----2-----2-----2-----2-----0-----------------------2-----2--0-----0--2--
D|--0-----------------4-----4-----4-----4-----0-----0-----0-----------------4--------4--------
A|--------------------------------------------------------------------------------------------
D|-----------------0-----------0-----------5-----------5-----------------0-----------------0--

Stave 7:

E|--------------------------------------------------2-----5--3--2--0--3--2h3p2--0--------------
B|--2-----0-----------------0-----------3--0--3-----3------------------------------3--2--------
G|--2-----0-----0-----------0---------------------------------------------------------2--2--2--
D|--4--4-----0-----------0-----------0-----------2-----2---------------------------------2--2--
A|------------------------------------------------------------------------------------0--------
D|--------5--------5--4--------4--5-----------4-----------2-----------0------------------------

Stave 8:

E|-----------------0--2--5--2--0---------------------------------------------------------------
B|--2--2--3--3--5-----------------3-----0--3--2--2h3p2--0--2--3-----3-----------------------0--
G|-----2--4--4--6---------------------------------------------------2-----------3--------------
D|-----2-----------------------------0---------------------------4-----4-----2-----------0-----
A|-----0--------------------------------------0------------------------------------------------
D|--------------------------------5---------------------------0-----------4--------4--5--------

Stave 9:

E|----------------------------------------------------------------------------------------------
B|--3--2--2h3p2--0--0--------------------3-----------0--3--2--2h3p2--0--2--3-----3--------------
G|---------------------------2--------2------------------------------------------2--------3-----
D|---------------------4--4-----4-----------------0---------------------------4--------2--------
A|-----0---------------------------------------------------0------------------------------------
D|---------------------0-----------4--------4--5---------------------------0--------4--------4--

Stave 10:

E|------------------------------5--------------------------------------------------------------
B|--------0--3--5--5h7p5-----5--7--7--7-----------------2-----2-----5-----5-----3-----------0--
G|--------------6---------7--------7--7-----------------------------------4-----4--------------
D|-----0------------------------------------0--------4-----4-----4-----4-----0-----0-----0-----
A|--------------0------------------------0-----0-----------------------------------------------
D|--5---------------------------0-----------------0-----------0-----------5-----------5--------

Stave 11:

E|--------------------------------------------------------------------5--2--5-----9-----9-----
B|--1--2--3--------2--2-----5-----3-----0-----------0--1--2--3--------------------------------
G|-----------2--------2-----2-----4-----------------------------2-----------------------------
D|--------------4-----4--4-----4-----0-----0-----0-----------------4--------------------------
A|-----------------------------------------------------------------------------4-----0-----0--
D|-----------0--------0-----------5-----------5-----------------0-----------0-----------5-----

Stave 12:

E|--7-----------------------------2-----2-----5-----3-----------------------------------------
B|--------------0--1--2--3-----------3--------------------3-----------3-----------3--0--3-----
G|--------------------------2-----------------------------4-----------4-----------------------
D|-----0-----0-----------------4-----------4-----4-----0-----------0-----------0-----------2--
A|--------------------------------------------------------------------------------------------
D|--------5-----------------0-----------0-----------5--------5--4--------4--5-----------4-----

Stave 13:

E|--2-----2-----0-----------------------------------------0--2--5--2--0------------------------
B|--3-----0-----0--------0--3--0--2--------2--2--3--3--5-----------------3-----0--3--2--2h3p2--
G|-----2--0-----0--------------------2--2-----2--4--4--6---------------------------------------
D|-----------2-----2-----------------2--2-----2-----------------------------0------------------
A|--------------------------------0-----------0--------------------------------------0---------
D|--------2-----------2--------------------------------------------------5---------------------

Stave 14:

E|---------------------------------------------------------------------------------------------
B|--0--2--3-----3-----------------------0--3--2--2h3p2--0--0--------------------------------0--
G|--------------2-----------3---------------------------------------2-----------3--------------
D|-----------4-----4-----2-----------0------------------------4--4-----4-----2-----------0-----
A|--------------------------------------------0------------------------------------------------
D|--------0-----------4--------4--5---------------------------0-----------4--------4--5--------

Stave 15:

E|-------------------------------------------------------------------------5-----------------
B|--3--2--2h3p2--0--2--3-----3-----------3-----------0--3--5--5h7p5-----5--7--7--7-----------
G|---------------------------2--------2--------------------6---------7--------7--7--------3--
D|------------------------4-----4-----------------0------------------------------------2-----
A|-----0---------------------------------------------------0---------------------------------
D|---------------------0-----------4--------4--5---------------------------0--------4--------

Stave 16:

E|---------------------------------5-----------------------------0--2--5--10--
B|-----------0--3--5--5h7p5-----5--7--7--7--------------------3-----------7---
G|-----------------6---------7--------7--7-----------------2--------------7---
D|--------0---------------------------------------0--2--4---------------------
A|-----------------0---------------------------0------------------------------
D|--4--5---------------------------0--------0-----------------------------0---

http://www.guitartabcreator.com
Guitar Tab Creator is intended to store guitar tab created through the tool. It currently does not support in-line text editing. Any text you place in here will be lost. If you need to comment on your tab, please use the "Tab Notes" section located below.