Sound will begin in 5 seconds

J.S. Bach - Cello Suite No.1 (BWV 1007)

01234567891011121314151617181920212223
E
B
G
D
A
E
B
0 1 2 3 4 5 6 7 8 9 10 11 12 13 14 15 16 17 18 19 20 21 22 23
Song Science #1: How Pros Use 6 Chords to Write Hit Songs
(/) Slide Up  (\) Slide Down  (h) Hammer On  (p) Pull Off  (b) Bend (r) Release (v) Vibrato

Stave 1:

G|--------4--2--4-----4-----------4--2--4-----4-----|--------5--4--5-----5-----------5--4--5-----5-----
D|--------------------------------------------------|-----2-----------2-----2-----2-----------2-----2--
A|-----5-----------5-----5-----5-----------5-----5--|--------------------------------------------------
E|--3-----------------------3-----------------------|--3-----------------------3-----------------------

Stave 2:

G|--------5--4--5-----5-----------5--4--5-----5-----|--------4--2--4-----4-----------4--2--4-----4-----
D|-----4-----------4-----4-----4-----------4-----4--|-----5-----------5-----5-----5-----------5-----5--
A|--------------------------------------------------|--------------------------------------------------
E|--3-----------------------3-----------------------|--3-----------------------3-----------------------

Stave 3:

G|--------4--2--4-----------------------------------|--------2-----2-----2-----------2-----2-----2-----
D|-----2-----------5--4--5--2--5--4--5--------------|-----5-----5-----5-----5-----5-----5-----5-----5--
A|--------------------------------------2--5--4--2--|--4-----------------------4-----------------------
E|--3-----------------------------------------------|--------------------------------------------------

Stave 4:

G|--------7--6--7-----------------------------------|--------------------------------------------------
D|-----7-----------7-----7-----7-----7-----4--------|--------5--4--5-----5-----------5--4--5-----5-----
A|--9-----------------7-----9-----7-----5-----7--5--|-----2-----------2-----2-----2-----------2-----2--
E|--------------------------------------------------|--0-----------------------0-----------------------

Stave 5:

G|-----------------------------------7--6--4--------|-----------7-----7--------------------------------
D|-----------2--------------5--4--2-----------7--5--|--4-----------7-----4--7--------4--7--5--4--------
A|-----4--5-----5--4--2-----------------------------|-----7--5-----------------5--7--------------7--5--
E|--0--------------------5--------------------------|--------------------------------------------------

Stave 6:

G|--
D|--
A|--
E|--

http://www.guitartabcreator.com
Guitar Tab Creator is intended to store guitar tab created through the tool. It currently does not support in-line text editing. Any text you place in here will be lost. If you need to comment on your tab, please use the "Tab Notes" section located below.