Sound will begin in 5 seconds

Jesus I Come

01234567891011121314151617181920212223
E
B
G
D
A
E
B
0 1 2 3 4 5 6 7 8 9 10 11 12 13 14 15 16 17 18 19 20 21 22 23
Song Science #1: How Pros Use 6 Chords to Write Hit Songs
(/) Slide Up  (\) Slide Down  (h) Hammer On  (p) Pull Off  (b) Bend (r) Release (v) Vibrato

Stave 1:

E|-----------------------------------------------------
B|-----------------5--------------------------5--------
G|--------4--5-----------4--5--------4--5--------------
D|--7--7--------5-----5--------7--7--------5-----5--3--
A|-----------------------------------------------------
E|-----------------------------------------------------

Stave 2:

E|--------------
B|--------------
G|-----2-----9--
D|--------------
A|--------------
E|--1-----8-----

Stave 3:

E|---------------------------------------------
B|--5-----6--5--6--5--5-----6--5--6--8--5--17--
G|-----7-----------------7---------------------
D|---------------------------------------------
A|---------------------------------------------
E|---------------------------------------------

Stave 4:

E|-----------------------------------------------12------------------
B|-----------------5--8--12----------12--13--------------12--13------
G|--------4--5---------------14--14----------12------12----------14--
D|--7--7--------5----------------------------------------------------
A|-------------------------------------------------------------------
E|-------------------------------------------------------------------

http://www.guitartabcreator.com
Guitar Tab Creator is intended to store guitar tab created through the tool. It currently does not support in-line text editing. Any text you place in here will be lost. If you need to comment on your tab, please use the "Tab Notes" section located below.