Sound will begin in 5 seconds

In God We Trust

Chords
01234567891011121314151617181920212223
E
B
G
D
A
E
B
0 1 2 3 4 5 6 7 8 9 10 11 12 13 14 15 16 17 18 19 20 21 22 23
Song Science #1: How Pros Use 6 Chords to Write Hit Songs
(/) Slide Up  (\) Slide Down  (h) Hammer On  (p) Pull Off  (b) Bend (r) Release (v) Vibrato

Stave 1:

E|-------------------5--5h7--------------------------
B|--7--7--7--7--5h7----------7--7--7--5--7--5--------
G|---------------------------------------------7--7--
D|---------------------------------------------------
A|---------------------------------------------------
E|---------------------------------------------------

Stave 2:

E|-------------------------
B|--10--5--7--3--10--5--7--
G|--11--6--7--4--11--6--7--
D|--12--7--9--5--12--7--9--
A|-------------------------
E|-------------------------

Stave 3:

E|------------------------------------------------------------------------------------------------------------
B|--8-----8-----8-----8-----7-----7-----7-----7-----10-----10-----10-----10-----12------12------10-----10-----
G|-----7-----7-----7-----7-----7-----7-----7-----7------9------9------9------9------11------11------9------9--
D|------------------------------------------------------------------------------------------------------------
A|------------------------------------------------------------------------------------------------------------
E|------------------------------------------------------------------------------------------------------------

Stave 4:

E|---------------
B|--10--2--7--5--
G|--11--2--7--6--
D|--12--4--9--7--
A|---------------
E|---------------

http://www.guitartabcreator.com
Guitar Tab Creator is intended to store guitar tab created through the tool. It currently does not support in-line text editing. Any text you place in here will be lost. If you need to comment on your tab, please use the "Tab Notes" section located below.