Sound will begin in 5 seconds

Jessica

01234567891011121314151617181920212223
E
B
G
D
A
E
B
0 1 2 3 4 5 6 7 8 9 10 11 12 13 14 15 16 17 18 19 20 21 22 23
Song Science #1: How Pros Use 6 Chords to Write Hit Songs
(/) Slide Up  (\) Slide Down  (h) Hammer On  (p) Pull Off  (b) Bend (r) Release (v) Vibrato

Stave 1:

E|------------------------------------
B|------------------------------------
G|-----4--5--4--5--5\7--7\9--6--------
D|--7---------------------------7-----
A|---------------------------------7--
E|------------------------------------

Stave 2:

E|-----------------------------------
B|-----------------------------------
G|-----------------------------------
D|-----4--5--4--5--5\7--7/5--4--5\7--
A|--7--------------------------------
E|-----------------------------------

Stave 3:

E|------------------------------------------------------------
B|-------------------------------------------9--12--14\16/14--
G|-----4--5--4--5--5\7--7\9\11\12\14--9--11-------------------
D|--7---------------------------------------------------------
A|------------------------------------------------------------
E|------------------------------------------------------------

Stave 4:

E|-----------------------------------------7--7--
B|----------------------------------7--10--------
G|-----------------9--11--9--7h9h7---------------
D|----------9--11--------------------------------
A|--9h11h9---------------------------------------
E|-----------------------------------------------

Stave 5:

E|---------9--10--12--10--9-------------------------------9--10--12--10--9------------------------
B|-----10--------------------10-----------------------10--------------------10--------------------
G|--9----------------------------9--------------9--9----------------------------9-----------------
D|----------------------------------12--11--12-------------------------------------11--12--11--7--
A|------------------------------------------------------------------------------------------------
E|------------------------------------------------------------------------------------------------

http://www.guitartabcreator.com
Guitar Tab Creator is intended to store guitar tab created through the tool. It currently does not support in-line text editing. Any text you place in here will be lost. If you need to comment on your tab, please use the "Tab Notes" section located below.