Sound will begin in 5 seconds

Magnificat

Chords
01234567891011121314151617181920212223
E
B
G
D
A
E
B
0 1 2 3 4 5 6 7 8 9 10 11 12 13 14 15 16 17 18 19 20 21 22 23
Song Science #1: How Pros Use 6 Chords to Write Hit Songs
(/) Slide Up  (\) Slide Down  (h) Hammer On  (p) Pull Off  (b) Bend (r) Release (v) Vibrato

Stave 1:

G|----------14----------17--14--------------------------14----------17--15--14----------------------
D|--15--17------17--15----------15--12--15--17--15--17------17--15--------------15--12--15--17--17--
A|--------------------------------------------------------------------------------------------------
E|--------------------------------------------------------------------------------------------------

Stave 2:

G|----------14----------17--14----------------------14--15--14------15--14----------
D|--15--17------17--15----------15--12--15--17--17--------------15----------15--15--
A|----------------------------------------------------------------------------------
E|----------------------------------------------------------------------------------

Stave 3:

G|----------14----------17--14--------------------------14----------17--15--14----------------------
D|--15--17--15--17--15--14------15--12--15--17--15--17--15--17--15--14----------15--12--15--17--17--
A|------------------------------13----------15----------------------------------13----------15--15--
E|--------------------------------------------------------------------------------------------------

Stave 4:

G|----------14----------17--14----------------------14--15--14------15--14----------
D|--15--17--15--17--15--14------15--12--15--17--17------15------15--15------15--15--
A|------------------------------13----------15--------------------------------------
E|------------------------------------------------------------------------------13--

Stave 5:

G|----------17--14--17--14--19--------------17--17--14--17--15--14------19--17--
D|--15--17--15------14----------20--19--17------15------14----------15------17--
A|--------------------------------------15--------------------------13------15--
E|--------------------------18--------------------------------------------------

Stave 6:

G|--17--17--14--17--14--19--------------19--19--17--17--17--
D|------15------14----------20--19--17--20--20--17--17--15--
A|----------------------------------15----------15--15------
E|----------------------18--------------18--------------13--

http://www.guitartabcreator.com
Guitar Tab Creator is intended to store guitar tab created through the tool. It currently does not support in-line text editing. Any text you place in here will be lost. If you need to comment on your tab, please use the "Tab Notes" section located below.