Sound will begin in 5 seconds

LOST SOUL

Chords
01234567891011121314151617181920212223
E
B
G
D
A
E
B
0 1 2 3 4 5 6 7 8 9 10 11 12 13 14 15 16 17 18 19 20 21 22 23
Song Science #1: How Pros Use 6 Chords to Write Hit Songs
(/) Slide Up  (\) Slide Down  (h) Hammer On  (p) Pull Off  (b) Bend (r) Release (v) Vibrato

Stave 1:

D|--------------------------------|--------------------------------|--
A|--------------------------------|--------------------------------|--
F|--------------------------------|--------------------------------|--
C|--------4--5--4-----4--7--5-----|-----------4--5--4--------------|--
G|--0-----5--6--5-----5--8--6-----|-----0-----5--6--5-----0--3-----|--
C|--0-----------------------------|-----0-----------------0--3-----|--

Stave 2:

D|--------------------------------|--------------------------------|--
A|--------------------------------|--------------------------------|--
F|--------------------------------|--------------------------------|--
C|--------4--5--4-----4--7--5-----|-----------4--5--4--------------|--
G|--0-----5--6--5-----5--8--6-----|-----0-----5--6--5--0--1--3-----|--
C|--0-----------------------------|-----0--------------0--1--3-----|--

Stave 3:

D|------------------|------------------|--
A|------------------|------------------|--
F|------------------|------------------|--
C|--11--11--12--11--|--10--10--11--10--|--
G|--9---9---9---9---|--8---8---8---8---|--
C|------------------|------------------|--

Stave 4:

D|---------------------|-----x-----|--
A|---------------------|-----x-----|--
F|--7-----10--8--7-----|-----x-----|--
C|--0-----0---0--0-----|-----x-----|--
G|---------------------|-----0-----|--
C|---------------------|-----0-----|--

http://www.guitartabcreator.com
Guitar Tab Creator is intended to store guitar tab created through the tool. It currently does not support in-line text editing. Any text you place in here will be lost. If you need to comment on your tab, please use the "Tab Notes" section located below.