Sound will begin in 5 seconds

LEAVE ME ALONE

Chords
01234567891011121314151617181920212223
E
B
G
D
A
E
B
0 1 2 3 4 5 6 7 8 9 10 11 12 13 14 15 16 17 18 19 20 21 22 23
Song Science #1: How Pros Use 6 Chords to Write Hit Songs
(/) Slide Up  (\) Slide Down  (h) Hammer On  (p) Pull Off  (b) Bend (r) Release (v) Vibrato

Stave 1:

D|------------|------------|------------|--------0--|--
A|------------|------------|------------|--------0--|--
F|------------|------------|------------|--------0--|--
C|--9-----10--|--9-----10--|--9-----10--|--9-----5--|--
G|--7-----7---|--7-----7---|--7-----7---|--7-----3--|--
D|--0-----0---|--0-----0---|--0-----0---|--0-----x--|--

Stave 2:

D|--------------|------------------|--------------|--------------|--
A|--------------|------------------|--------------|--------------|--
F|--------------|------------------|--------------|--------------|--
C|--9--9--9--9--|--10--10--10--10--|--9--9--9--9--|--5--5--5--7--|--
G|--7--7--7--7--|--7---7---7---7---|--7--7--7--7--|--3--3--3--5--|--
D|--0--0--0--0--|--0---0---0---0---|--0--0--0--0--|--3--3--3--5--|--

Stave 3:

D|--------------|------------------|------------------|--------------|--|------------------|--
A|--------------|------------------|------------------|--------------|--|------------------|--
F|--------------|------------------|------------------|--------------|--|------------------|--
C|--9--9--9--9--|--10--10--10--10--|--12--12--12--12--|--5--5--5--7--|--|--12--12--10--10--|--
G|--7--7--7--7--|--7---7---7---7---|--9---9---9---9---|--3--3--3--5--|--|--9---9---9---9---|--
D|--0--0--0--0--|--0---0---0---0---|--0---0---0---0---|--3--3--3--5--|--|--0---0---0---0---|--

Stave 4:

D|--------------|--------------
A|--------------|--------------
F|--------------|--------------
C|--2-----2-----|-----2--2-----
G|--2-----2-----|-----2--2-----
D|--0-----0-----|-----0--1-----

http://www.guitartabcreator.com
Guitar Tab Creator is intended to store guitar tab created through the tool. It currently does not support in-line text editing. Any text you place in here will be lost. If you need to comment on your tab, please use the "Tab Notes" section located below.