Sound will begin in 5 seconds

I.N.R.I.

Chords
01234567891011121314151617181920212223
E
B
G
D
A
E
B
0 1 2 3 4 5 6 7 8 9 10 11 12 13 14 15 16 17 18 19 20 21 22 23
Song Science #1: How Pros Use 6 Chords to Write Hit Songs
(/) Slide Up  (\) Slide Down  (h) Hammer On  (p) Pull Off  (b) Bend (r) Release (v) Vibrato

Stave 1:

D|--x--------------|--x-----------------|--x--------------|--x--------------|--
A|--8-----8--------|--9------9----------|--8-----8--------|--7-----7--------|--
F|--9--------9-----|--10--------10------|--9--------9-----|--8--------8-----|--
C|--9-----------9--|--10------------10--|--9-----------9--|--8-----------8--|--
G|--7--------------|--8-----------------|--7--------------|--6--------------|--
D|--x--------------|--x-----------------|--x--------------|--x--------------|--

Stave 2:

D|--------------------------------------------|--
A|--------------------------------------------|--
F|--------------------------------------------|--
C|--9-----8--9-----12--9-----8--9-----12--12--|--
G|--7-----6--7-----10--7-----6--7-----10--10--|--
D|--------------------------------------------|--

Stave 3:

D|---------------|----------------|---------------|----------------|--
A|---------------|----------------|---------------|----------------|--
F|---------------|----------------|---------------|----------------|--
C|--9--10--9--6--|--9--10--9--12--|--9--10--9--6--|--9--10--9--12--|--
G|--7--8---7--4--|--7--8---7--10--|--7--8---7--4--|--7--8---7--10--|--
D|---------------|----------------|---------------|----------------|--

Stave 4:

D|--------------------------------|---------------------------------|--
A|--------------------------------|---------------------------------|--
F|--------------------------------|---------------------------------|--
C|--9-----9--10--12--6--9--10--6--|--9-----9--10--12--6--9--10--12--|--
G|--7-----7--8---10--4--7--8---4--|--7-----7--8---10--4--7--8---10--|--
D|--------------------------------|---------------------------------|--

Stave 5:

D|-----------|-----------|-----------|-----------|-----------|-----------|-----------|-----------|--
A|-----------|-----------|-----------|-----------|-----------|-----------|-----------|-----------|--
F|-----------|-----------|-----------|-----------|-----------|-----------|-----------|-----------|--
C|-----------|-----------|-----------|-----------|-----------|-----------|-----------|-----------|--
G|--5--5-----|--4--4-----|--5--5-----|--4--4-----|--5--5-----|--6--6-----|--5--5-----|--3--3-----|--
D|--3--3-----|--3--3-----|--3--3-----|--3--3-----|--3--3-----|--4--4-----|--3--3-----|--1--1-----|--

Stave 6:

D|--10-------------------------------|--
A|--11-------------------------------|--
F|--12-------------------------------|--
C|--12--------9-----8--9-----12--12--|--
G|--10--------7-----6--7-----10--10--|--
D|--10-------------------------------|--

http://www.guitartabcreator.com
Guitar Tab Creator is intended to store guitar tab created through the tool. It currently does not support in-line text editing. Any text you place in here will be lost. If you need to comment on your tab, please use the "Tab Notes" section located below.