Sound will begin in 5 seconds

ENDZEIT

Chords
01234567891011121314151617181920212223
E
B
G
D
A
E
B
0 1 2 3 4 5 6 7 8 9 10 11 12 13 14 15 16 17 18 19 20 21 22 23
Song Science #1: How Pros Use 6 Chords to Write Hit Songs
(/) Slide Up  (\) Slide Down  (h) Hammer On  (p) Pull Off  (b) Bend (r) Release (v) Vibrato

Stave 1:

D|---0----------|---0-----------|-
A|---0----------|---0-----------|-
F|---0----------|---0-----------|-
C|-2---7-6-9--7-|-2---7-6-9--9--|-
G|-2---8-7-10-8-|-2---8-7-10-10-|-
D|-0---0-0-0--0-|-0---0-0-0--0--|-

Stave 2:

D|---------------------------------|-------------------------------------|-
A|---------------------------------|-------------------------------------|-
F|---------------------------------|-------------------------------------|-
C|-9-9-9-9-9-9-9-9-5-5-5-5-5-5-5-5-|-------------------------10-10-10-10-|-
G|-7-7-7-7-7-7-7-7-2-2-2-2-3-3-3-3-|-5-5-5-5-5-5-5-5-3-3-3-3-8--8--8--8--|-
D|-7-7-7-7-7-7-7-7-2-2-2-2-3-3-3-3-|-3-3-3-3-3-3-3-3-1-1-1-1-8--8--8--8--|-

Stave 3:

D|--------------|-----------------------|-----------------------|-
A|--------------|-----------------------|-----------------------|-
F|--------------|----4-4-4-4-5-5-2-2----|----4-4-4-4-7-7-5-5----|-
C|-9------------|----2-2-2-2-2-2-2-2----|----2-2-2-2-4-4-4-4----|-
G|-7----10-9----|-----------------------|-----------------------|-
D|-7----7--7----|-----------------------|-----------------------|-

http://www.guitartabcreator.com
Guitar Tab Creator is intended to store guitar tab created through the tool. It currently does not support in-line text editing. Any text you place in here will be lost. If you need to comment on your tab, please use the "Tab Notes" section located below.