Sound will begin in 5 seconds

Bumpin' on Sunset

Chords
01234567891011121314151617181920212223
E
B
G
D
A
E
B
0 1 2 3 4 5 6 7 8 9 10 11 12 13 14 15 16 17 18 19 20 21 22 23
Song Science #1: How Pros Use 6 Chords to Write Hit Songs
(/) Slide Up  (\) Slide Down  (h) Hammer On  (p) Pull Off  (b) Bend (r) Release (v) Vibrato

Stave 1:

E|--------8--11--12------8--9--10--8--------------------8--11--12--11--10--8------10--8-----------------8--12--15--12--
B|----10-------------10---------------10--8--10-----10------------------------10---------10--8--10--10-----------------
G|--9------5--8---9-------5--6--7---5-------------9------5--8---9---8---7---5------7---5-----------------5--9---12--9---
D|----7--------------7----------------7---5--7------7-------------------------7----------7---5--7---7------------------
A|--7---------------------------------------------7---------------------------------------------------------------------
E|---------------------------------------------------------------------------------------------------------------------

Stave 2:

E|----10--12--10--12------------8--12--15--12--10--12--10--12------------------8--12--15--12--10--12--10--12-----------
B|--------------------------10---------------------------------------------10------------------------------------------
G|----7---9---7---9---9--9------5--9---12--9---7---9---7---9---9--9--9--9------5--9---12--9---7---9---7---9---9--9--9--
D|--------------------------7----------------------------------------------7-------------------------------------------
A|--------------------7--7-------------------------------------7--7--7--7-------------------------------------7--7--7--
E|---------------------------------------------------------------------------------------------------------------------

Stave 3:

E|------------12--15--12--10--12--10--12----------------------12--15--12--10--12--10--12-----------
B|----10--13------------------------------------------10--13---------------------------------------
G|------------9---12--9---7---9---7---9---9--9--9--9----------9---12--9---7---9---7---9---9--8--9--
D|----7---10------------------------------------------7---10---------------------------------------
A|----------------------------------------7--7--7--7--------------------------------------7--6--7--
E|-------------------------------------------------------------------------------------------------

Stave 4:

E|----
B|----
G|----
D|----
A|----
E|----

Stave 5:

E|----
B|----
G|----
D|----
A|----
E|----

Stave 6:

E|----
B|----
G|----
D|----
A|----
E|----

Stave 7:

E|----
B|----
G|----
D|----
A|----
E|----

Stave 8:

E|----
B|----
G|----
D|----
A|----
E|----

Stave 9:

E|----
B|----
G|----
D|----
A|----
E|----

Stave 10:

E|----
B|----
G|----
D|----
A|----
E|----

Stave 11:

E|----
B|----
G|----
D|----
A|----
E|----

Stave 12:

E|----
B|----
G|----
D|----
A|----
E|----

Stave 13:

E|----
B|----
G|----
D|----
A|----
E|----

Stave 14:

E|----
B|----
G|----
D|----
A|----
E|----

Stave 15:

E|----
B|----
G|----
D|----
A|----
E|----

Stave 16:

E|----
B|----
G|----
D|----
A|----
E|----

http://www.guitartabcreator.com
Guitar Tab Creator is intended to store guitar tab created through the tool. It currently does not support in-line text editing. Any text you place in here will be lost. If you need to comment on your tab, please use the "Tab Notes" section located below.