Sound will begin in 5 seconds

4 on 6

Chords
01234567891011121314151617181920212223
E
B
G
D
A
E
B
0 1 2 3 4 5 6 7 8 9 10 11 12 13 14 15 16 17 18 19 20 21 22 23
Song Science #1: How Pros Use 6 Chords to Write Hit Songs
(/) Slide Up  (\) Slide Down  (h) Hammer On  (p) Pull Off  (b) Bend (r) Release (v) Vibrato

Stave 1:

E|--------------------------------------------------------------------------------------------------
B|--------------------------------------------------------------------------------------------------
G|-----------------------------------------------------------5-----------3-----------------------8--
D|-----------5-----------5-----------5-----------5--------3--------3--1--------------7-----8--6-----
A|-----5--3--------5--3--------5--3--------5--3-----3--5--------1--------------7--5-----6-----------
E|--3-----------3-----------3-----------3-----------------------------------5-----------------------

Stave 2:

E|-----------------------------------------------------------------------------------------------------
B|----------------------------------------------------6--3--4--5--6------------------------------------
G|----------------------------------------------------7--3--4--5--5-----7--7-----5--5-----7h8p7-----5--
D|-------------5-----------5-----------5-----------5--7--3--4--5--4--8--------8--------8---------8-----
A|-------5--3--------5--3--------5--3--------5--3-----------------5------------------------------------
E|----3-----------3-----------3-----------3-----------6------------------------------------------------

Stave 3:

E|-----------------------------------------------------------------------------------------------------
B|---------------------------------------------------------------------7\6-----------------------------
G|---------7--5--5-----------6/7-----------6\5-----------5\4----------------6-----------7--7-----5--5--
D|----5h8-----------5--7--7-------8-------------6-------------5----------------6-----8--------8--------
A|-----------------------------------8--6----------6--4----------5--3-------------9--------------------
E|-----------------------------------------------------------------------------------------------------

Stave 4:

E|----------------------------------------------------5-------------------------------------------------
B|-------------------------------------------6--3--4-----6---------------------------6------------------
G|-------7h8p7-----5-------7--5--5-----------7--3--4--5--5-----5--5--------7p5----8-----7p5-------------
D|----8---------8-----5h8-----------5--7--7--7--3--4--5--4--8--------5--8-------5/-----------8-----6\5--
A|-------------------------------------------------------5--------------------------------------8-------
E|------------------------------------------------------------------------------------------------------

Stave 5:

E|---------------------------------------------------------------------------6--9/10--10\9p8--6--5--------
B|---------------------------------------8--8/10--6-----6--------------6--8-------------------------8--6--
G|----8--9p8p7--10p9p8--6--5--------6/7--------------7-----7----------------------------------------------
D|----------------------------8--6----------------------------8--7--5-------------------------------------
A|--------------------------------------------------------------------------------------------------------
E|--------------------------------------------------------------------------------------------------------

Stave 6:

E|-------------------------------------------------------------------------------------------
B|------------------------------------6--8--8--8--8--8--8--8/9\10--8--8--8/9/10--------------
G|----8--7--8--7-------------------7---------------------------------------------7--5--------
D|----------------8--5--4/5--5--8------------------------------------------------------8--5--
A|-------------------------------------------------------------------------------------------
E|-------------------------------------------------------------------------------------------

Stave 7:

E|----
B|----
G|----
D|----
A|----
E|----

Stave 8:

E|----
B|----
G|----
D|----
A|----
E|----

Stave 9:

E|----
B|----
G|----
D|----
A|----
E|----

Stave 10:

E|----
B|----
G|----
D|----
A|----
E|----

Stave 11:

E|----
B|----
G|----
D|----
A|----
E|----

Stave 12:

E|----
B|----
G|----
D|----
A|----
E|----

Stave 13:

E|----
B|----
G|----
D|----
A|----
E|----

Stave 14:

E|----
B|----
G|----
D|----
A|----
E|----

Stave 15:

E|----
B|----
G|----
D|----
A|----
E|----

Stave 16:

E|----
B|----
G|----
D|----
A|----
E|----

Stave 17:

E|----
B|----
G|----
D|----
A|----
E|----

Stave 18:

E|----
B|----
G|----
D|----
A|----
E|----

http://www.guitartabcreator.com
Guitar Tab Creator is intended to store guitar tab created through the tool. It currently does not support in-line text editing. Any text you place in here will be lost. If you need to comment on your tab, please use the "Tab Notes" section located below.