Sound will begin in 5 seconds

Memories - Maroon 5

Chords
01234567891011121314151617181920212223
E
B
G
D
A
E
B
0 1 2 3 4 5 6 7 8 9 10 11 12 13 14 15 16 17 18 19 20 21 22 23
(/) Slide Up  (\) Slide Down  (h) Hammer On  (p) Pull Off  (b) Bend (r) Release (v) Vibrato

Capo Fret 4

Intro

E|-----x-----x-----x-----x-----x-----x-----x-----x--
B|-----x-----7-----0-----0-----1-----0-----1-----3--
G|-----4-----7-----0-----2-----0-----0-----0-----0--
D|-----5-----7-----2-----0-----2-----0-----2-----4--
A|-----5--5--x-----2--2--x--3--3-----x--3--3--5--5--
E|--3--3-----x--0--x-----x-----x--3--x-----x-----x--

Chorus

E|-----------------------------------------------------------------------------------------------------
B|--3--0--1--3--0--1--3--0--------0--------0--------0--------------------------------------------------
G|--0--------------------0--0--2-----0--2-----0--2-----2--0--------------------------------------0-----
D|--------------0--------------------------------------------2--2--2--2--0--2--0--0--0--2--2--2-----4--
A|-----------------------------------2--------2--------------3-----------------------3--------------5--
E|--3--------------------0--------------------------------------------3--------------------------------

							http://www.guitartabcreator.com
Note:
Guitar Tab Creator is intended to store guitar tab created through the tool. It currently does not support in-line text editing. Any text you place in here will be lost. If you need to comment on your tab, please use the "Tab Notes" section located below.