Sound will begin in 5 seconds

Im not the only one, riff

Chords
01234567891011121314151617181920212223
E
B
G
D
A
E
B
0 1 2 3 4 5 6 7 8 9 10 11 12 13 14 15 16 17 18 19 20 21 22 23
(/) Slide Up  (\) Slide Down  (h) Hammer On  (p) Pull Off  (b) Bend (r) Release (v) Vibrato

Capo Fret 5

Stave 1:

E|-----------------x--x--x--x-----
B|-----------------x--x--x--x-----
G|--------0--0-----1--1--2--2-----
D|--0--2--------2--2--2--2--3-----
A|--3--------------2--2--0--3-----
E|-----------------0--0--x--1-----

Stave 2:

E|-----------------x--x-----
B|-----------------x--x-----
G|--------0--------0--0-----
D|--0--2-----2-----0--0--2--
A|--3-----------3--2--2--3--
E|-----------------3--3-----

							http://www.guitartabcreator.com
Note:

Stave 1 repeats 3 times, then stave 2 is played once. 

Guitar Tab Creator is intended to store guitar tab created through the tool. It currently does not support in-line text editing. Any text you place in here will be lost. If you need to comment on your tab, please use the "Tab Notes" section located below.