Sound will begin in 5 seconds

Fireflies intro

Chords
01234567891011121314151617181920212223
E
B
G
D
A
E
B
0 1 2 3 4 5 6 7 8 9 10 11 12 13 14 15 16 17 18 19 20 21 22 23
(/) Slide Up  (\) Slide Down  (h) Hammer On  (p) Pull Off  (b) Bend (r) Release (v) Vibrato

Capo Fret 3

Stave 1:

E|--------7--------3--------------3--------------------------------------
B|--------------------1--3--1--3-----------------1-----------------1--3--
G|-----0--------0-----0-----------------2--0--2--------2--0-----0--------
D|--------------------------------------3--------------------------------
A|--------------------3--------------------------------------------------
E|--3--------3-----------------------1--------------1--------1-----------

Stave 2:

E|--------7--------3--------------1--0--------------------------------------------------
B|--------------------1-----3-----------3--1--------------------------------------1--3--
G|-----0--------0-----0-----0-----------------------2--------0--------2--------0--------
D|-----------------------------------------------3--------3--------3--------3-----------
A|--------------------3--3-----3--------------------------------------------------------
E|--3--------3--------------------------------1--------1--------1--------1--------------

							http://www.guitartabcreator.com
Note:

Chords:

VERSES:  G, C, F 

CHORUS: F, C, G, F, C, Em, F, F, C , Em, F, F, C , D

Guitar Tab Creator is intended to store guitar tab created through the tool. It currently does not support in-line text editing. Any text you place in here will be lost. If you need to comment on your tab, please use the "Tab Notes" section located below.