Bloodstream - Ed Sheeran:)

Chords

01234567891011121314151617181920212223
E
B
G
D
A
E
B
0 1 2 3 4 5 6 7 8 9 10 11 12 13 14 15 16 17 18 19 20 21 22 23
(/) Slide Up  (\) Slide Down  (h) Hammer On  (p) Pull Off  (b) Bend (r) Release (v) Vibrato

Stave 1:

E|--------------------------------------------------
B|--------------------------------------------------
G|--------------------------------------------------
D|-----2--0-----2--0-----2-----2--0-----2--0-----2--
A|--0--------0--------0-----0--------0--------0-----
D|--------------------------------------------------

Stave 2:

E|--------------------------------------------------
B|--------------------------------------------------
G|--------------------------------------------------
D|--------0--------0--------------0--------0--------
A|-----3--------3--------3-----3--------3--------3--
D|--3--------3--------3-----3--------3--------3-----

Stave 3:

E|--------------------------------------------------
B|--------------------------------------------------
G|--------------------------------------------------
D|--------0--------0--------------0--------0--------
A|-----5--------5--------5-----5--------5--------5--
D|--5--------5--------5-----5--------5--------5-----

Stave 4:

E|--------------------------------------------------
B|--------------------------------------------------
G|--------------------------------------------------
D|--------0--------0--------------0--------0--------
A|-----3--------3--------3-----3--------3--------3--
D|--0--------0--------0-----0--------0--------0-----

							http://www.guitartabcreator.com
Instruments
{"title":"Bloodstream - Ed Sheeran","strings":[[[".",".",".",".",".",".",".",".",".",".",".",".",".",".",".","."],[".",".",".",".",".",".",".",".",".",".",".",".",".",".",".","."],[".",".",".",".",".",".",".",".",".",".",".",".",".",".",".","."],[".",2,0,".",2,0,".",2,".",2,0,".",2,0,".",2],[0,".",".",0,".",".",0,".",0,".",".",0,".",".",0,"."],[".",".",".",".",".",".",".",".",".",".",".",".",".",".",".","."]],[[".",".",".",".",".",".",".",".",".",".",".",".",".",".",".","."],[".",".",".",".",".",".",".",".",".",".",".",".",".",".",".","."],[".",".",".",".",".",".",".",".",".",".",".",".",".",".",".","."],[".",".",0,".",".",0,".",".",".",".",0,".",".",0,".","."],[".",3,".",".",3,".",".",3,".",3,".",".",3,".",".",3],[3,".",".",3,".",".",3,".",3,".",".",3,".",".",3,"."]],[[".",".",".",".",".",".",".",".",".",".",".",".",".",".",".","."],[".",".",".",".",".",".",".",".",".",".",".",".",".",".",".","."],[".",".",".",".",".",".",".",".",".",".",".",".",".",".",".","."],[".",".",0,".",".",0,".",".",".",".",0,".",".",0,".","."],[".",5,".",".",5,".",".",5,".",5,".",".",5,".",".",5],[5,".",".",5,".",".",5,".",5,".",".",5,".",".",5,"."]],[[".",".",".",".",".",".",".",".",".",".",".",".",".",".",".","."],[".",".",".",".",".",".",".",".",".",".",".",".",".",".",".","."],[".",".",".",".",".",".",".",".",".",".",".",".",".",".",".","."],[".",".",0,".",".",0,".",".",".",".",0,".",".",0,".","."],[".",3,".",".",3,".",".",3,".",3,".",".",3,".",".",3],[0,".",".",0,".",".",0,".",0,".",".",0,".",".",0,"."]]],"numberofstrings":6,"notes":["E","B","G","D","A","D","B"],"capo":0,"stringnotes":["E4","B3","G3","D3","A2","D3"],"comments":["Stave 1:","Stave 2:","Stave 3:","Stave 4:"],"timing":[["W","W","W","W","W","W","W","W","W","W","W","W","W","W","W","W"],["W","W","W","W","W","W","W","W","W","W","W","W","W","W","W","W"],["W","W","W","W","W","W","W","W","W","W","W","W","W","W","W","W"],["W","W","W","W","W","W","W","W","W","W","W","W","W","W","W","W"]],"timingvisible":false,"tabcounter":16,"stave":3,"totalstaves":4,"instrument":"6guitar","selectedtuning":"6_standard","version":"13"}

Member for

2 months 1 week
Submitted by JaymiesGuitarSchool on Thu, 2020-04-02 09:49