Sound will begin in 5 seconds

FIRST SOLO

01234567891011121314151617181920212223
E
B
G
D
A
E
B
0 1 2 3 4 5 6 7 8 9 10 11 12 13 14 15 16 17 18 19 20 21 22 23
Song Science #1: How Pros Use 6 Chords to Write Hit Songs
(/) Slide Up  (\) Slide Down  (h) Hammer On  (p) Pull Off  (b) Bend (r) Release (v) Vibrato

Stave 1:

E|--5--2-----2--5/7--7--5--2--5--2----------------------------------------------------------
B|--------5-------------------------5--5--2-----2-------------------------------------------
G|-------------------------------------------4-----4--2-----2--4b5--4--2-----2--4b5--4--2v--
D|-------------------------------------------------------4----------------4-----------------
A|------------------------------------------------------------------------------------------
E|------------------------------------------------------------------------------------------

Stave 2:

E|-----------------------------2--5--5/7--5--9--7-------------------------------------------
B|--5--2-----2--5--2-----2--5----------------------10--7-----7--10--7-----7-----------------
G|--------4-----------4-----------------------------------9------------9-----9--9--6--------
D|------------------------------------------------------------------------------------9--7--
A|------------------------------------------------------------------------------------------
E|------------------------------------------------------------------------------------------

Stave 3:

E|----------------------------------------------------------------------
B|---------------------10--7--------------------------------------------
G|----------------------------------------------------------------------
D|-----7--9b10--9p7h9---------------------7--9--9b10--9--7-----7--9--7--
A|--9-------------------------------7--9--------------------9-----------
E|----------------------------7--9--------------------------------------

http://www.guitartabcreator.com
Guitar Tab Creator is intended to store guitar tab created through the tool. It currently does not support in-line text editing. Any text you place in here will be lost. If you need to comment on your tab, please use the "Tab Notes" section located below.