jjj

Chords

01234567891011121314151617181920212223
E
B
G
D
A
E
B
0 1 2 3 4 5 6 7 8 9 10 11 12 13 14 15 16 17 18 19 20 21 22 23
(/) Slide Up  (\) Slide Down  (h) Hammer On  (p) Pull Off  (b) Bend (r) Release (v) Vibrato

Stave 1:

E|--11--11--11--11--9---8--6--4--4--6--8--
B|--13--13--13--13--11--9--7--6--6--7--9--
G|----------------------------------------
D|----------------------------------------
A|----------------------------------------
E|----------------------------------------

Stave 2:

E|--8--8--8--6--6--8--9---
B|--9--9--9--8--8--9--11--
G|------------------------
D|------------------------
A|------------------------
E|------------------------

Stave 3:

E|--11--11--9---9/11---------9---11--9---11--9---11--9---11--9---9/11---------11--11--
B|--13--13--11--------11/13--11--13--11--13--11--13--11--13--11--------11/13--13--13--
G|------------------------------------------------------------------------------------
D|------------------------------------------------------------------------------------
A|------------------------------------------------------------------------------------
E|------------------------------------------------------------------------------------

Stave 4:

E|--11--11--11--13--13--11--9---11--11--11--15--15--13--11-----
B|--13--13--13--14--14--13--11--13--13--13--16--16--14--13-----
G|-------------------------------------------------------------
D|-------------------------------------------------------------
A|-------------------------------------------------------------
E|-------------------------------------------------------------

Stave 5:

E|--11--11--11--11/16---------16--16--16--15--13--11--9---9---
B|--13--13--13---------13/18--18--18--18--16--14--13--11--11--
G|------------------------------------------------------------
D|------------------------------------------------------------
A|------------------------------------------------------------
E|------------------------------------------------------------

Stave 6:

E|--11--11--9---8--9---11--9---8--
B|--13--13--11--9--11--13--11--9--
G|--------------------------------
D|--------------------------------
A|--------------------------------
E|--------------------------------

							http://www.guitartabcreator.com
Instruments
{"strings":[[[11,11,11,11,9,8,6,4,4,6,8],[13,13,13,13,11,9,7,6,6,7,9],[".",".",".",".",".",".",".",".",".",".","."],[".",".",".",".",".",".",".",".",".",".","."],[".",".",".",".",".",".",".",".",".",".","."],[".",".",".",".",".",".",".",".",".",".","."]],[[8,8,8,6,6,8,9],[9,9,9,8,8,9,11],[".",".",".",".",".",".","."],[".",".",".",".",".",".","."],[".",".",".",".",".",".","."],[".",".",".",".",".",".","."]],[[11,11,9,9,"/",11,".",".",".",9,11,9,11,9,11,9,11,9,9,"/",11,".",".",".",11,11],[13,13,11,".",".",".",11,"/",13,11,13,11,13,11,13,11,13,11,".",".",".",11,"/",13,13,13],[".",".",".",".",".",".",".",".",".",".",".",".",".",".",".",".",".",".",".",".",".",".",".",".",".","."],[".",".",".",".",".",".",".",".",".",".",".",".",".",".",".",".",".",".",".",".",".",".",".",".",".","."],[".",".",".",".",".",".",".",".",".",".",".",".",".",".",".",".",".",".",".",".",".",".",".",".",".","."],[".",".",".",".",".",".",".",".",".",".",".",".",".",".",".",".",".",".",".",".",".",".",".",".",".","."]],[[11,11,11,13,13,11,9,11,11,11,15,15,13,11,"."],[13,13,13,14,14,13,11,13,13,13,16,16,14,13,"."],[".",".",".",".",".",".",".",".",".",".",".",".",".",".","."],[".",".",".",".",".",".",".",".",".",".",".",".",".",".","."],[".",".",".",".",".",".",".",".",".",".",".",".",".",".","."],[".",".",".",".",".",".",".",".",".",".",".",".",".",".","."]],[[11,11,11,11,"/",16,".",".",".",16,16,16,15,13,11,9,9],[13,13,13,".",".",".",13,"/",18,18,18,18,16,14,13,11,11],[".",".",".",".",".",".",".",".",".",".",".",".",".",".",".",".","."],[".",".",".",".",".",".",".",".",".",".",".",".",".",".",".",".","."],[".",".",".",".",".",".",".",".",".",".",".",".",".",".",".",".","."],[".",".",".",".",".",".",".",".",".",".",".",".",".",".",".",".","."]],[[11,11,9,8,9,11,9,8],[13,13,11,9,11,13,11,9],[".",".",".",".",".",".",".","."],[".",".",".",".",".",".",".","."],[".",".",".",".",".",".",".","."],[".",".",".",".",".",".",".","."]]],"numberofstrings":6,"notes":["E","B","G","D","A","E","B"],"capo":0,"stringnotes":["E4","B3","G3","D3","A2","E2"],"comments":["Stave 1:","Stave 2:","Stave 3:","Stave 4:","Stave 5:","Stave 6:"],"timing":[["W","W","W","W","W","W","W","W","W","W","W"],["W","W","W","W","W","W","W"],["W","W","W","W",null,"W","W",null,"W","W","W","W","W","W","W","W","W","W","W",null,"W","W",null,"W","W","W"],["W","W","W","W","W","W","W","W","W","W","W","W","W","W"],["W","W","W","W",null,"W","W",null,"W","W","W","W","W","W","W","W","W"],["W","W","W","W","W","W","W","W"]],"timingvisible":false,"tabcounter":7,"stave":5,"totalstaves":6,"instrument":"6guitar","selectedtuning":"6_standard","version":"13"}
Submitted by javier_0304 on Mon, 2020-09-14 17:52