Lambada Tutorial guitarra

Chords

01234567891011121314151617181920212223
E
B
G
D
A
E
B
0 1 2 3 4 5 6 7 8 9 10 11 12 13 14 15 16 17 18 19 20 21 22 23
(/) Slide Up  (\) Slide Down  (h) Hammer On  (p) Pull Off  (b) Bend (r) Release (v) Vibrato

Stave 1:

E|--------5-----3--1--------------------------------------
B|--------------------5--3-----3--6--5--3--1--3-----------
G|--2--------------------------------------------2--0--2--
D|--------------------------------------------------------
A|--------------------------------------------------------
E|--------------------------------------------------------

Stave 2:

E|--3--3-----------------5--3--------------------------------------
B|--------3-----------3--------3--------3--6--5--3--1--1--3--1--3--
G|-----------3-----3--------------3--------------------------------
D|-----------------------------------------------------------------
A|-----------------------------------------------------------------
E|-----------------------------------------------------------------

							http://www.guitartabcreator.com
Instruments
{"strings":[[[".","_",5,"_",3,1,".",".","_",".",".",".",".",".",".",".",".","."],[".","_",".","_",".",".",5,3,"_",3,6,5,3,1,3,".",".","."],[2,"_",".","_",".",".",".",".","_",".",".",".",".",".",".",2,0,2],[".","_",".","_",".",".",".",".","_",".",".",".",".",".",".",".",".","."],[".","_",".","_",".",".",".",".","_",".",".",".",".",".",".",".",".","."],[".","_",".","_",".",".",".",".","_",".",".",".",".",".",".",".",".","."]],[[3,3,".",".","_",".",".",5,3,".",".","_",".",".",".",".",".",".",".",".","."],[".",".",3,".","_",".",3,".",".",3,".","_",3,6,5,3,1,1,3,1,3],[".",".",".",3,"_",3,".",".",".",".",3,"_",".",".",".",".",".",".",".",".","."],[".",".",".",".","_",".",".",".",".",".",".","_",".",".",".",".",".",".",".",".","."],[".",".",".",".","_",".",".",".",".",".",".","_",".",".",".",".",".",".",".",".","."],[".",".",".",".","_",".",".",".",".",".",".","_",".",".",".",".",".",".",".",".","."]]],"numberofstrings":6,"notes":["E","B","G","D","A","E","B"],"capo":0,"stringnotes":["E4","B3","G3","D3","A2","E2"],"comments":["Stave 1:","Stave 2:"],"timing":[["W","W","W","W","W","W","W","W",null,"W","W","W","W","W","W","W","W","W"],["W","W","W","W",null,"W","W","W","W","W","W",null,"W","W","W","W","W","W","W","W","W"]],"timingvisible":false,"tabcounter":21,"stave":1,"totalstaves":2,"instrument":"6guitar","selectedtuning":"6_standard","version":"13"}

Member for

9 months
Submitted by Javier González on Tue, 2021-01-12 14:41