Go Fuck Yourself tab

Chords

01234567891011121314151617181920212223
E
B
G
D
A
E
B
0 1 2 3 4 5 6 7 8 9 10 11 12 13 14 15 16 17 18 19 20 21 22 23
(/) Slide Up  (\) Slide Down  (h) Hammer On  (p) Pull Off  (b) Bend (r) Release (v) Vibrato

Stave 1:

E|-----------------------------------------------------------------------
B|-----7--9--7-----------7--9--7-----------7--9--7--------7--------7-----
G|--8-----------8-----8-----------8-----8-----------8--------8--6-----8--
D|-----------------------------------------------------------------------
A|-----------------------------------------------------------------------
E|-----------------------------------------------------------------------

Stave 2:

E|-----------------------------------6-----------------
B|--9b7-----9--9--7-----9b7-----9b------9--7-----------
G|--------------------------------------------8--6--8--
D|-----------------------------------------------------
A|-----------------------------------------------------
E|-----------------------------------------------------

							http://www.guitartabcreator.com
Instruments
{"strings":[[[".",".",".",".",".","_",".",".",".",".",".","_",".",".",".",".",".","_",".",".",".",".","."],[".",7,9,7,".","_",".",7,9,7,".","_",".",7,9,7,".","_",7,".",".",7,"."],[8,".",".",".",8,"_",8,".",".",".",8,"_",8,".",".",".",8,"_",".",8,6,".",8],[".",".",".",".",".","_",".",".",".",".",".","_",".",".",".",".",".","_",".",".",".",".","."],[".",".",".",".",".","_",".",".",".",".",".","_",".",".",".",".",".","_",".",".",".",".","."],[".",".",".",".",".","_",".",".",".",".",".","_",".",".",".",".",".","_",".",".",".",".","."]],[[".",".",".","_",".",".",".","_",".",".",".","_",".",".","_",6,".",".",".",".","."],[9,"b",7,"_",9,9,7,"_",9,"b",7,"_",9,"b","_",".",9,7,".",".","."],[".",".",".","_",".",".",".","_",".",".",".","_",".",".","_",".",".",".",8,6,8],[".",".",".","_",".",".",".","_",".",".",".","_",".",".","_",".",".",".",".",".","."],[".",".",".","_",".",".",".","_",".",".",".","_",".",".","_",".",".",".",".",".","."],[".",".",".","_",".",".",".","_",".",".",".","_",".",".","_",".",".",".",".",".","."]]],"numberofstrings":6,"notes":["E","B","G","D","A","E","B"],"capo":0,"stringnotes":["E4","B3","G3","D3","A2","E2"],"comments":["Stave 1:","Stave 2:"],"timing":[["W","W","W","W","W",null,"W","W","W","W","W",null,"W","W","W","W","W",null,"W","W","W","W","W"],["W",null,"W",null,"W","W","W",null,"W",null,"W",null,"W","W","W","W","W","W","W","W","W"]],"timingvisible":false,"tabcounter":21,"stave":1,"totalstaves":2,"instrument":"6guitar","selectedtuning":"6_standard","version":"13"}

Member for

3 months
Submitted by Javier González on Sat, 2020-06-27 14:52