Sound will begin in 5 seconds

My Distant Trip

Chords
01234567891011121314151617181920212223
E
B
G
D
A
E
B
0 1 2 3 4 5 6 7 8 9 10 11 12 13 14 15 16 17 18 19 20 21 22 23
Song Science #1: How Pros Use 6 Chords to Write Hit Songs
(/) Slide Up  (\) Slide Down  (h) Hammer On  (p) Pull Off  (b) Bend (r) Release (v) Vibrato

Stave 1:

E|--------------------------------------------------------------
B|-----------5-----------------5--------5--------------------5--
G|--------5-----5-----------5--------------5-----5--------5-----
D|-----7-----------7-----7-----------7--------7--------7--------
A|--0-----------------0-----------8-----------------7-----------
E|--------------------------------------------------------------

Stave 2:

E|-----------------------------------------------------------------------------------------
B|-----------------------------------------------------------------------------------------
G|--2--2--2--4--2--2--1--1--5--5--5--5--5--5--5--5--4--4--4--2--2--2--2--2--2--4--2--2--1--
D|-----------------------------------------------------------------------------------------
A|-----------------------------------------------------------------------------------------
E|-----------------------------------------------------------------------------------------

Stave 3:

E|-----------------------------------------------------------------
B|-----------------------------------------------------------------
G|--1--5--5--5--5--5--5--5--5--5--5--5--5--4--4--2--2--2--1--1\23--
D|-----------------------------------------------------------------
A|-----------------------------------------------------------------
E|-----------------------------------------------------------------

Stave 4:

E|---------------------------------------------------
B|---------------------------------------------------
G|---------------------------------------------------
D|--7--7--7--10--10--10--10--9--9--9--9--7--7--7--7--
A|--7--7--7------------------------------------------
E|---------------------------------------------------

Stave 5:

E|---------------------------------------------------
B|---------------------------------------------------
G|---------------------------------------------------
D|--7--7--7--10--10--10--10--9--9--9--9--7--7--7--7--
A|--8--8--8------------------------------------------
E|---------------------------------------------------

Stave 6:

E|--------------------------------------------------
B|--------------------------------------------------
G|--------------------------------------------------
D|--7--7--7--7--7--7--7--7--9--7--9--7--9--7--9--7--
A|--5--5--5--5--5--5--5--5--5--5--5--5--5--5--5--5--
E|--------------------------------------------------

Stave 7:

E|------------------------------------------------------
B|------------------------------------------------------
G|------------------------------------------------------
D|--7--7--7--7--10--10--10--10--9--9--9--9--7--7--7--7--
A|--7--7--7--7--7---7---7---7---7--7--7--7--7--7--7--7--
E|------------------------------------------------------

Stave 8:

E|------------------------------------------------------
B|------------------------------------------------------
G|------------------------------------------------------
D|--7--7--7--7--10--10--10--10--9--9--9--9--7--7--7--7--
A|--8--8--8--8--8---8---8---8---8--8--8--8--8--8--8--8--
E|------------------------------------------------------

Stave 9:

E|------------------------------------------------
B|------------------------------------------------
G|--2--2--2--2--3--2--2--2--2--2--2--2--2h3--3p2--
D|--2--2--2--2-----------2--2--2--2--2------------
A|--0--0--0--0-----------0--0--3--3--2------------
E|------------------------------------------------

Stave 10:

E|----------------------------------------------------------------------------------------------
B|----------------------------------------------------------------------------------------------
G|----------------------------------------------------------------------------------------------
D|-----7--10--9--7--9--10-----7--10--9--7--9--10-----7--10--9--7--9--10-----7--10--9--7--10--9--
A|--0----------------------0----------------------8----------------------7----------------------
E|----------------------------------------------------------------------------------------------

Stave 11:

E|--------------------------------------------------------------------------------------------------
B|--10--10--12--13--12--12--12--12--13--12--13--12--17--17--15--13--15--12--12--12--13--12--13--12--
G|--------------------------------------------------------------------------------------------------
D|--------------------------------------------------------------------------------------------------
A|--------------------------------------------------------------------------------------------------
E|--------------------------------------------------------------------------------------------------

http://www.guitartabcreator.com
Guitar Tab Creator is intended to store guitar tab created through the tool. It currently does not support in-line text editing. Any text you place in here will be lost. If you need to comment on your tab, please use the "Tab Notes" section located below.