Sound will begin in 5 seconds

Hopeless Living

Chords
01234567891011121314151617181920212223
E
B
G
D
A
E
B
0 1 2 3 4 5 6 7 8 9 10 11 12 13 14 15 16 17 18 19 20 21 22 23
Song Science #1: How Pros Use 6 Chords to Write Hit Songs
(/) Slide Up  (\) Slide Down  (h) Hammer On  (p) Pull Off  (b) Bend (r) Release (v) Vibrato

Stave 1:

E|--------------------------------------------------------------
B|--------------------------------------------------------------
G|--5--4--2--5--4--2--4--5--2--4--2-----4--2--------------------
D|--5--4--2--5--4--2--4--5--2--4--2--5--4--2--5--------5--------
A|--3--2--0--3--2--0--2--3--0--2--0--5--2--0--5--------5--------
E|-----------------------------------3--------3--3--3--3--3--3--

Stave 2:

E|-------------------------------------------------------------------------
B|-----------------------------------------------------------------13--12--
G|-------------------------------------------------------------------------
D|-----6h7h9/10--7--9p7--9--10--10\9\7--9--9--7p10--10--10--10--9----------
A|-------------------------------------------------------------------------
E|-------------------------------------------------------------------------

Stave 3:

E|------------------------------------------------------------------------------------------
B|------------------------------------------------------------------------------------------
G|-----9--9h10p9p7--9p7---------7------------7--7--7--10--9--9p10--10--10--10--10--10p9--9--
D|--7--------------------10--9-----10--9--7-------------------------------------------------
A|------------------------------------------------------------------------------------------
E|------------------------------------------------------------------------------------------

Stave 4:

E|--------------0-----------------------0-----------
B|--------------------1-----------------------1-----
G|--------2--------2-----2--------2--------2-----2--
D|-----2-----2-----------------2-----2--------------
A|--0-----------------------0-----------------------
E|--------------------------------------------------

Stave 5:

E|--------------------------------------7-----------
B|-----------------------------------------8-----8--
G|--------------0-----------------9-----------9-----
D|--------2-----------2--------9-----9--------------
A|-----2-----2-----2-----2--7-----------------------
E|--0-----------------------------------------------

Stave 6:

E|------------------------------------
B|------------------------------------
G|-----2--5--4--5--4--9--2--5---------
D|--2--2--5--4--5--4--9--2--5---------
A|--2--0--3--2--3--2--7--0--3--2h3h5--
E|--0---------------------------------

Stave 7:

E|-----------------------------------------------------
B|-----------------------------------------------------
G|--------------------------------------------3--------
D|--2--2--------------------3--------5--------3--5--3--
A|--2--2--------------------3--------5--------1--5--3--
E|--0--0--0--0--0--0--0--0--1--0--0--3--0--0-----3--1--

Stave 8:

E|-----------------------------------------------------------------------------------
B|-----------------------------------------------------------------------------------
G|-----------------------------------------3-----------------------------------------
D|-----------------------3--------5--------3--5--3--5--3--5--3--5--3--5--3--5--3--5--
A|-----------------------3--------5--------1--5--3--5--3--5--3--5--3--5--3--5--3--5--
E|--0--0--0--0--0--0--0--1--0--0--3--0--0-----3--1--3--1--3--1--3--1--3--1--3--1--3--

http://www.guitartabcreator.com
Guitar Tab Creator is intended to store guitar tab created through the tool. It currently does not support in-line text editing. Any text you place in here will be lost. If you need to comment on your tab, please use the "Tab Notes" section located below.