Sound will begin in 5 seconds

Clock Will Never Stop

Chords
01234567891011121314151617181920212223
E
B
G
D
A
E
B
0 1 2 3 4 5 6 7 8 9 10 11 12 13 14 15 16 17 18 19 20 21 22 23
Song Science #1: How Pros Use 6 Chords to Write Hit Songs
(/) Slide Up  (\) Slide Down  (h) Hammer On  (p) Pull Off  (b) Bend (r) Release (v) Vibrato

Stave 1:

E|-----------------------------------------
B|--------0-----------0-----------0--------
G|-----5-----5-----5-----5-----5-----5-----
D|--7-----------7-----------7-----------7--
A|--0-----------------------8-----------9--
E|-----------------------------------------

Stave 2:

E|--------------------------------
B|--------0--------------0--------
G|-----5-----5--------5-----5-----
D|--7-----------7--7-----------7--
A|--0-----------0--9-----------8--
E|--------------------------------

Stave 3:

E|--------0-----------0-----------0--------
B|-----6-----6-----6-----6-----6-----6-----
G|--7-----------7-----------7-----------7--
D|--0-----------------------8-----------9--
A|-----------------------------------------
E|-----------------------------------------

Stave 4:

E|-----------0--------------0--------
B|--------6-----6--------6-----6-----
G|-----7-----------7--7-----------7--
D|-----0-----------0--9-----------8--
A|-----------------------------------
E|-----------------------------------

Stave 5:

E|---------------------------------------------------
B|---------------------------------------------------
G|---------------------------------------------------
D|--7--7h10--10--10p7-----7-----------------------7--
A|--0------------------9-----9-----------------9--0--
E|------------------------------10--10--9--10--------

Stave 6:

E|-------------------------------------------------------
B|-------------------------------------------------------
G|-------------------------------------------------------
D|--7h10--10--10p7-----7--7h10p7-----7----------------7--
A|------------------9-------------9-----9----------9--0--
E|-----------------------------------------10--10--------

Stave 7:

E|--------------------------------------------------------------------------
B|--------------------------------------------------------------------------
G|--------------------------------------------------------------------------
D|--7\6--7--7h10--7--10--7-----7----------------7--7\6--7--7h10p9--9h10--7--
A|--------------------------9-----9----------9--0---------------------------
E|-----------------------------------10--10---------------------------------

Stave 8:

E|--------------------------------------------------------------------
B|--------------------------------------------------------------------
G|--2--2--2--------2--2--2--2-----------------------------------------
D|--2--2--2--------2--2--2--2--------3--3--3--------4--4--4--4--------
A|--0--0--0--0--0--0--0--0--0--0--0--3--3--3--------4--4--4--4--------
E|-----------------------------------1--1--1--1--1--2--2--2--2--2--2--

Stave 9:

E|--------------0-----------------------9-----------
B|-----6-----------6-----6-----6-----------6-----6--
G|--------7-----------7-----------7-----------7-----
D|--0--------0--------------8--------8--------------
A|--------------------------------------------------
E|--------------------------------------------------

Stave 10:

E|--------------------------------
B|-----6--------------------------
G|--------7-----------------------
D|--------------------------------
A|--0-----------------------------
E|--------------------------------

http://www.guitartabcreator.com
Guitar Tab Creator is intended to store guitar tab created through the tool. It currently does not support in-line text editing. Any text you place in here will be lost. If you need to comment on your tab, please use the "Tab Notes" section located below.