three!

01234567891011121314151617181920212223
E
B
G
D
A
E
B
0 1 2 3 4 5 6 7 8 9 10 11 12 13 14 15 16 17 18 19 20 21 22 23
(/) Slide Up  (\) Slide Down  (h) Hammer On  (p) Pull Off  (b) Bend (r) Release (v) Vibrato

Stave 1:

E|--------------------------------------------------------5-----------------
B|--------3--------3--------3--------3-----------3--------5--------7--------
G|--------0--------2--------4--------4--------4-----4-----6-----6--6-----6--
D|-----2--------2--------2--------2--------5-----------5--5--5-----8--8-----
A|--------------------------------------------------------------------------
E|--0--------2--------3--------4--------5-----------------5--------5--------

Stave 2:

E|--5--------5---------------------------------------------------------------
B|--7-----------7-----7--------10--8--7-----------7-----------------7--------
G|--6-----6--------6--7-----7---------------------7--------------6-----6-----
D|--7--7--------------7--7---------------------5-----5--------5-----------5--
A|--5---------------------------------------7-----------7--------------------
E|--------------------7------------------0-----------------5-----------------

Stave 3:

E|------------------------------------12--
B|--------------------------------10------
G|-------------9--------------11----------
D|---------10-----12--10--12--------------
A|-----10---------------------------------
E|--8-------------------------------------

							http://www.guitartabcreator.com
Chords

Instruments
{"strings":[[[".",".",".",".",".",".",".",".",".",".",".",".",".",".",".",".",".",".",5,".",".",".",".","."],[".",".",3,".",".",3,".",".",3,".",".",3,".",".",".",3,".",".",5,".",".",7,".","."],[".",".",0,".",".",2,".",".",4,".",".",4,".",".",4,".",4,".",6,".",6,6,".",6],[".",2,".",".",2,".",".",2,".",".",2,".",".",5,".",".",".",5,5,5,".",8,8,"."],[".",".",".",".",".",".",".",".",".",".",".",".",".",".",".",".",".",".",".",".",".",".",".","."],[0,".",".",2,".",".",3,".",".",4,".",".",5,".",".",".",".",".",5,".",".",5,".","."]],[[5,".",".",5,".",".",".",".",".",".",".",".",".",".",".",".",".",".",".",".",".",".",".","."],[7,".",".",".",7,".",7,".",".",10,8,7,".",".",".",7,".",".",".",".",".",7,".","."],[6,".",6,".",".",6,7,".",7,".",".",".",".",".",".",7,".",".",".",".",6,".",6,"."],[7,7,".",".",".",".",7,7,".",".",".",".",".",".",5,".",5,".",".",5,".",".",".",5],[5,".",".",".",".",".",".",".",".",".",".",".",".",7,".",".",".",7,".",".",".",".",".","."],[".",".",".",".",".",".",7,".",".",".",".",".",0,".",".",".",".",".",5,".",".",".",".","."]],[[".",".",".",".",".",".",".",".",".",12],[".",".",".",".",".",".",".",".",10,"."],[".",".",".",9,".",".",".",11,".","."],[".",".",10,".",12,10,12,".",".","."],[".",10,".",".",".",".",".",".",".","."],[8,".",".",".",".",".",".",".",".","."]]],"numberofstrings":6,"notes":["E","B","G","D","A","E","B"],"capo":0,"stringnotes":["E4","B3","G3","D3","A2","E2"],"comments":["Stave 1:","Stave 2:","Stave 3:"],"timing":[["W","W","W","W","W","W","W","W","W","W","W","W","W","W","W","W","W","W","W","W","W","W","W","W"],["W","W","W","W","W","W","W","W","W","W","W","W","W","W","W","W","W","W","W","W","W","W","W","W"],["W","W","W","W","W","W","W","W","W","W"]],"timingvisible":false,"tabcounter":24,"stave":1,"totalstaves":3,"instrument":"6guitar","selectedtuning":"6_standard","version":"13"}

Member for

1 month 3 weeks
Submitted by jasoncath on Mon, 2021-03-08 21:53