don't lose me

01234567891011121314151617181920212223
E
B
G
D
A
E
B
0 1 2 3 4 5 6 7 8 9 10 11 12 13 14 15 16 17 18 19 20 21 22 23
(/) Slide Up  (\) Slide Down  (h) Hammer On  (p) Pull Off  (b) Bend (r) Release (v) Vibrato

Stave 1:

E|--------------------------------------------------------------------------
B|-----------7-----------------7-----------------3-----3-----------5--3--5--
G|--------6-----6-----------6-----6-----------4-----4--3--3-----------------
D|-----7-----------7-----7-----------7-----4-----------2-----2--------------
A|--5-----------------5--------------------------------3--------3-----------
E|--------------------------------------3-----------------------------------

Stave 2:

E|--------------------------------------------------------------------------
B|-----------7-----------------7-----------------3--------5--------6--------
G|--------6-----6-----------6-----6-----------4-----4-----4--4-----5--5-----
D|-----7-----------7-----7-----------7-----4-----------4--5-----5--6-----6--
A|--5-----------------5-----------------------------------3--------4--------
E|--------------------------------------3-----------------------------------

Stave 3:

E|--------------------------7-----------------------------------------------
B|-----------7-----------------7-----------------3-----3-----------3--------
G|--------6-----6-----------------7--4--------4-----4--3--3-----------3-----
D|-----7-----------7-----7-----------------4-----------2-----2-----------2--
A|--5-----------------5--------------------------------3--------3-----------
E|--------------------------------------3-----------------------------------

Stave 4:

E|--------------------------------------------------------5-----------------
B|-----------2-----2-----------2--------3--------3--------5--------7--------
G|--------2-----2--2--2-----------2-----0--2--------2-----6-----6--6--6-----
D|-----2-----------1-----1-----------1--2-----2--------2--5--5-----8-----8--
A|-----------------2--------2-----------------------------------------------
E|--2-----------------------------------0-----------------5--------5--------

							http://www.guitartabcreator.com
Chords

Instruments
{"strings":[[[".",".",".",".",".",".",".",".",".",".",".",".",".",".",".",".",".",".",".",".",".",".",".","."],[".",".",".",7,".",".",".",".",".",7,".",".",".",".",".",3,".",3,".",".",".",5,3,5],[".",".",6,".",6,".",".",".",6,".",6,".",".",".",4,".",4,3,3,".",".",".",".","."],[".",7,".",".",".",7,".",7,".",".",".",7,".",4,".",".",".",2,".",2,".",".",".","."],[5,".",".",".",".",".",5,".",".",".",".",".",".",".",".",".",".",3,".",".",3,".",".","."],[".",".",".",".",".",".",".",".",".",".",".",".",3,".",".",".",".",".",".",".",".",".",".","."]],[[".",".",".",".",".",".",".",".",".",".",".",".",".",".",".",".",".",".",".",".",".",".",".","."],[".",".",".",7,".",".",".",".",".",7,".",".",".",".",".",3,".",".",5,".",".",6,".","."],[".",".",6,".",6,".",".",".",6,".",6,".",".",".",4,".",4,".",4,4,".",5,5,"."],[".",7,".",".",".",7,".",7,".",".",".",7,".",4,".",".",".",4,5,".",5,6,".",6],[5,".",".",".",".",".",5,".",".",".",".",".",".",".",".",".",".",".",3,".",".",4,".","."],[".",".",".",".",".",".",".",".",".",".",".",".",3,".",".",".",".",".",".",".",".",".",".","."]],[[".",".",".",".",".",".",".",".",7,".",".",".",".",".",".",".",".",".",".",".",".",".",".","."],[".",".",".",7,".",".",".",".",".",7,".",".",".",".",".",3,".",3,".",".",".",3,".","."],[".",".",6,".",6,".",".",".",".",".",7,4,".",".",4,".",4,3,3,".",".",".",3,"."],[".",7,".",".",".",7,".",7,".",".",".",".",".",4,".",".",".",2,".",2,".",".",".",2],[5,".",".",".",".",".",5,".",".",".",".",".",".",".",".",".",".",3,".",".",3,".",".","."],[".",".",".",".",".",".",".",".",".",".",".",".",3,".",".",".",".",".",".",".",".",".",".","."]],[[".",".",".",".",".",".",".",".",".",".",".",".",".",".",".",".",".",".",5,".",".",".",".","."],[".",".",".",2,".",2,".",".",".",2,".",".",3,".",".",3,".",".",5,".",".",7,".","."],[".",".",2,".",2,2,2,".",".",".",2,".",0,2,".",".",2,".",6,".",6,6,6,"."],[".",2,".",".",".",1,".",1,".",".",".",1,2,".",2,".",".",2,5,5,".",8,".",8],[".",".",".",".",".",2,".",".",2,".",".",".",".",".",".",".",".",".",".",".",".",".",".","."],[2,".",".",".",".",".",".",".",".",".",".",".",0,".",".",".",".",".",5,".",".",5,".","."]]],"numberofstrings":6,"notes":["E","B","G","D","A","E","B"],"capo":0,"stringnotes":["E4","B3","G3","D3","A2","E2"],"comments":["Stave 1:","Stave 2:","Stave 3:","Stave 4:"],"timing":[["W","W","W","W","W","W","W","W","W","W","W","W","W","W","W","W","W","W","W","W","W","W","W","W"],["W","W","W","W","W","W","W","W","W","W","W","W","W","W","W","W","W","W","W","W","W","W","W","W"],["W","W","W","W","W","W","W","W","W","W","W","W","W","W","W","W","W","W","W","W","W","W","W","W"],["W","W","W","W","W","W","W","W","W","W","W","W","W","W","W","W","W","W","W","W","W","W","W","W"]],"timingvisible":false,"tabcounter":24,"stave":3,"totalstaves":4,"instrument":"6guitar","selectedtuning":"6_standard","version":"13"}

Member for

1 month 3 weeks
Submitted by jasoncath on Mon, 2021-03-08 22:40