Sound will begin in 5 seconds

Solo test

01234567891011121314151617181920212223
E
B
G
D
A
E
B
0 1 2 3 4 5 6 7 8 9 10 11 12 13 14 15 16 17 18 19 20 21 22 23
Song Science #1: How Pros Use 6 Chords to Write Hit Songs
(/) Slide Up  (\) Slide Down  (h) Hammer On  (p) Pull Off  (b) Bend (r) Release (v) Vibrato

Stave 1:

E|--13--12--------------------------17--------------------------------------17b19--17b19--19p17------------
B|----------15--12----------15--17------17--15--------------------------12-----------------------17p15-----
G|------------------14--16----------------------16--14--------------14----------------------------------16p
D|------------------------------------------------------15--14--12-----------------------------------------
A|---------------------------------------------------------------------------------------------------------
E|---------------------------------------------------------------------------------------------------------

Stave 2:

E|------12h13\0--
B|---------------
G|--14-----------
D|---------------
A|---------------
E|---------------

http://www.guitartabcreator.com
Guitar Tab Creator is intended to store guitar tab created through the tool. It currently does not support in-line text editing. Any text you place in here will be lost. If you need to comment on your tab, please use the "Tab Notes" section located below.