Sound will begin in 5 seconds

General Experiments

Chords
01234567891011121314151617181920212223
E
B
G
D
A
E
B
0 1 2 3 4 5 6 7 8 9 10 11 12 13 14 15 16 17 18 19 20 21 22 23
Song Science #1: How Pros Use 6 Chords to Write Hit Songs
(/) Slide Up  (\) Slide Down  (h) Hammer On  (p) Pull Off  (b) Bend (r) Release (v) Vibrato

Stave 1:

E|--------------2--3-----
B|--3--3--------------3--
G|--------2--0-----------
D|-----------------------
A|-----3-----------------
E|-----------------------

Stave 2:

E|--------------------------------------------------------------------
B|--------------------------------------------------------12------12--
G|--------------------------0--2--4v--7--7/9------12--14------14------
D|-----------0-----0--2--3--------------------10----------12----------
A|--0--2--3-----3-----------------------------------------------------
E|--------------------------------------------------------------------

Stave 3:

E|--------0--3p0--------0--3h5--3--------------0--|-----0h3p2--------------------------------------------5--3--2--0-----|--
B|-----1-------------1----------------------1-----|------------3--2--------------------------5--------5-----------------|--
G|--2-------------2----------------2-----2--------|------------------4--2--------------6--7-----6--7--------------------|--
D|------------------------------------0-----------|--0---------------------5--4--2--5--------------------------------0--|--
A|------------------------------------------------|---------------------------------------------------------------------|--
E|------------------------------------------------|---------------------------------------------------------------------|--

Stave 4:

E|--------3-----3--------3--------------3-----------------
B|-----4-----4--------0-----4--------4--------------------
G|--1--------------1-----------0--4-----------1--4--1--0--
D|--------------------------------------------------------
A|--------------------------------------------------------
E|-----------------------------------------1--------------

Stave 5:

E|-----0-----11-----0-----11-----0-----11-----0-----11-----0-----11-----0-----11-----0-----
B|--8-----8------8-----8------8-----8------8-----7------7-----7------7-----7------7-----7--
G|-----------------------------------------------------------------------------------------
D|-----------------------------------------------------------------------------------------
A|-----------------------------------------------------------------------------------------
E|-----------------------------------------------------------------------------------------

Stave 6:

E|----------------------------
B|--2/3\2p0-------------5--3--
G|-----------0----------------
D|--------------2--2/5--------
A|----------------------------
E|----------------------------

Stave 7:

E|--------------0--------------------------------------------------------------------------------
B|-----------1-----1--1/3--5--3--1--0-------------0-----3--5-------------------------------------
G|--------2----------------------------2--1--1/4--------------5--2v------------------------------
D|-----2-------------------------------------------------------------3--2--2/5v--12p7p5----------
A|--0------------------------------------------------5-----------------------------------10--7v--
E|-----------------------------------------------------------------------------------------------

Stave 8:

E|-----------------------|--------------------
B|---------5----------0--|--------------------
G|--0h2h4----------------|--1-----------------
D|---------------2/3-----|-----1--3-----------
A|------------0----------|--------------6--8--
E|-----------------------|-----------4--------

Stave 9:

E|----------------------------------------------------------------------|----------------------------
B|----------------------------------------------------------------------|----------------------------
G|----------------------------------------------------------7--------5--|--3/5b7/7------------7--10--
D|-----------7p0-----5p0---------------------------7--5--7-----8--5--5--|--3--------8--8\5/7---------
A|--------5-------5-------5--5\3--3/5--------5--------------------------|----------------------------
E|--5--6-------------------------------6--5--5--5--5--3--5--------------|----------------------------

Stave 10:

E|----------------------15--14--
B|------15--14--13--------------
G|------------------14----------
D|--14--------------------------
A|------------------------------
E|------------------------------

http://www.guitartabcreator.com
Guitar Tab Creator is intended to store guitar tab created through the tool. It currently does not support in-line text editing. Any text you place in here will be lost. If you need to comment on your tab, please use the "Tab Notes" section located below.