Sound will begin in 5 seconds

rgh

01234567891011121314151617181920212223
E
B
G
D
A
E
B
0 1 2 3 4 5 6 7 8 9 10 11 12 13 14 15 16 17 18 19 20 21 22 23
Song Science #1: How Pros Use 6 Chords to Write Hit Songs
(/) Slide Up  (\) Slide Down  (h) Hammer On  (p) Pull Off  (b) Bend (r) Release (v) Vibrato

Stave 1:

G|--------0-----------
D|-----3-----3--0-----
A|--3--------------3--
E|--------------------

Stave 2:

G|-----6--8--6--0--------6--8--6--0--------
D|-----------------6-----------------6-----
A|--6-----------------6-----------------6--
E|-----------------------------------------

Stave 3:

G|--5--5--8--8--3--3--5--3--0--3--5--5--5--3--0--3--5--5--5--
D|-----------------------------------------------------------
A|-----------------------------------------------------------
E|-----------------------------------------------------------

Stave 4:

G|--5--4--3--0--3--5--5--5--
D|--------------------------
A|--------------------------
E|--------------------------

Stave 5:

G|--
D|--
A|--
E|--

Stave 6:

G|-----------3--5-----------3--5-----------3--5-----------3--5--0--------3--5--0--------3--5--
D|-----3--5-----------3--5--------0--3--5--------0--3--5-----------3--5-----------3--5--------
A|--3--------------3--------------------------------------------------------------------------
E|--------------------------------------------------------------------------------------------

Stave 7:

G|--0--9--0--9--0--9--0--9--11--
D|------------------------------
A|------------------------------
E|------------------------------

http://www.guitartabcreator.com
Guitar Tab Creator is intended to store guitar tab created through the tool. It currently does not support in-line text editing. Any text you place in here will be lost. If you need to comment on your tab, please use the "Tab Notes" section located below.