Sound will begin in 5 seconds

A girl named Tailor

01234567891011121314151617181920212223
E
B
G
D
A
E
B
0 1 2 3 4 5 6 7 8 9 10 11 12 13 14 15 16 17 18 19 20 21 22 23
Song Science #1: How Pros Use 6 Chords to Write Hit Songs
(/) Slide Up  (\) Slide Down  (h) Hammer On  (p) Pull Off  (b) Bend (r) Release (v) Vibrato

Stave 1:

G|--------------------------------------------------------------------0--0--2--3--------2-----------------4--5--------------------------------------------------------
D|-----------------------------------------------2--------------2--4--------------3--------5-----0--4--5----------------------19--17----------------19--17------------
A|-----------3--3--3--------------------0--2--4-----4--0--2--4-----------------------3--------0-----------------0--0--17--19----------0--0--17--19----------19--0--0--
E|--0--3--0-----------0--0--0--3--4--3--------------------------------------------------------------------------------------------------------------------------------

Stave 2:

G|----------19--17----------0--0--1--3--------3--1--
D|--17--19----------19--17--------------3--1--------
A|--------------------------------------------------
E|--------------------------------------------------

http://www.guitartabcreator.com
Guitar Tab Creator is intended to store guitar tab created through the tool. It currently does not support in-line text editing. Any text you place in here will be lost. If you need to comment on your tab, please use the "Tab Notes" section located below.