Sound will begin in 5 seconds

ghjfhjsghfsdjgdkhgfjhgf

01234567891011121314151617181920212223
E
B
G
D
A
E
B
0 1 2 3 4 5 6 7 8 9 10 11 12 13 14 15 16 17 18 19 20 21 22 23
Song Science #1: How Pros Use 6 Chords to Write Hit Songs
(/) Slide Up  (\) Slide Down  (h) Hammer On  (p) Pull Off  (b) Bend (r) Release (v) Vibrato

Stave 1:

G|--------------3--------------3--------------3-----
D|--------3--5-----------3--5-----------3--5-----5--
A|--3--5-----------3--5-----------3--5--------------
E|--------------------------------------------------

Stave 2:

G|--------------------------------------------------
D|--------------------------------------------------
A|--------------------------------------------------
E|--15--15--15--12--12--12--11--11--11--14--14--14--

Stave 3:

G|------17------17------16--16----------16------17--
D|--17------17------17----------16--16------16------
A|--------------------------------------------------
E|--------------------------------------------------

Stave 4:

G|------10------10------9--9--
D|--10------10------10--------
A|----------------------------
E|----------------------------

http://www.guitartabcreator.com
Guitar Tab Creator is intended to store guitar tab created through the tool. It currently does not support in-line text editing. Any text you place in here will be lost. If you need to comment on your tab, please use the "Tab Notes" section located below.