Sound will begin in 5 seconds

New Song

01234567891011121314151617181920212223
E
B
G
D
A
E
B
0 1 2 3 4 5 6 7 8 9 10 11 12 13 14 15 16 17 18 19 20 21 22 23
Song Science #1: How Pros Use 6 Chords to Write Hit Songs
(/) Slide Up  (\) Slide Down  (h) Hammer On  (p) Pull Off  (b) Bend (r) Release (v) Vibrato

Stave 1:

E|--------------|-----------------------|----------------------------------------|--
B|--------------|-----------------------|----------------------------------------|--
G|--------------|-----------------------|----------------------------------------|--
D|--0--3--6--0--|--0--3--6--5--1--8--0--|--0--6--0--6--0----0--6--0--6--0--3--1--|--
A|--0--3--6--0--|--0--3--6--5--1--8--0--|--0--6--0--6--0----0--6--0--6--0--3--1--|--
E|--0--3--6--0--|--0--3--6--5--1--8--0--|--0--6--0--6--0----0--6--0--6--0--3--1--|--

Stave 2:

E|-------------------------------------------------------|-----------------------------|--
B|-------------------------------------------------------|-----------------------------|--
G|-------------------------------------------------------|-----------------------------|--
D|--6--5--3--5--6--0--6--0--6--0----0--6--0--6--0--3--1--|-----1-----1-----1--6--3--1--|--
A|--6--5--3--5--6--0--6--0--6--0----0--6--0--6--0--3--1--|-----1-----1-----1--6--3--1--|--
E|--6--5--3--5--6--0--6--0--6--0----0--6--0--6--0--3--1--|--0--1--0--1--0--1--6--3--1--|--

Stave 3:

E|--7--------7----------|--------|-----------------|-----------------7-----------------10----9--|--
B|--6--------6----------|--------|-----------------|-----------------6-----------------9-----8--|--
G|--5--------5----------|--------|-----------------|-----------------5-----------------8-----7--|--
D|--0--6--5--0--10--12--|--------|--0--1--0--6--5--|--0--1--0--1--0-----0--1--0--1--0-----------|--
A|--0--6--5--0--10--12--|--------|--0--1--0--6--5--|--0--1--0--1--0-----0--1--0--1--0-----------|--
E|--0--6--5--0--10--12--|--------|--0--1--0--6--5--|--0--1--0--1--0-----0--1--0--1--0-----------|--

Stave 4:

E|-----------------7-----------------10----9--|------
B|-----------------6-----------------9-----8--|------
G|-----------------5-----------------8-----7--|------
D|--0--1--0--3--0-----0--1--0--3--0-----------|------
A|--0--1--0--3--0-----0--1--0--3--0-----------|------
E|--0--1--0--3--0-----0--1--0--3--0-----------|------

http://www.guitartabcreator.com
Guitar Tab Creator is intended to store guitar tab created through the tool. It currently does not support in-line text editing. Any text you place in here will be lost. If you need to comment on your tab, please use the "Tab Notes" section located below.