Hey Jude Solo improv

Chords
01234567891011121314151617181920212223
E
B
G
D
A
E
B
0 1 2 3 4 5 6 7 8 9 10 11 12 13 14 15 16 17 18 19 20 21 22 23
(/) Slide Up  (\) Slide Down  (h) Hammer On  (p) Pull Off  (b) Bend (r) Release (v) Vibrato

Stave 1:

E|-------------16--15--13--15--13--16--15--13--15--13--------------------13--------------------------------------------------------13--15b16b15b16p13--15b16--
B|--13--16b18------------------------------------------16b18--13-------------16--13--------------------------------------------13-----------------------------
G|----------------------------------------------------------------15b17--------------15b17--13--13--15--15b17--13----------13---------------------------------
D|-----------------------------------------------------------------------------------------------------------------15--15-------------------------------------
A|------------------------------------------------------------------------------------------------------------------------------------------------------------
E|------------------------------------------------------------------------------------------------------------------------------------------------------------

Stave 2:

E|--13--15b16--13-----------------------13------------------------------------13-------------13-------------------13---------------------
B|-----------------15b16--13----------------16--15------------------------13-------------13------13--16b18------------13--16--13---------
G|-------------------------------15b17--------------15b17--15--13--15b17----------15b17-------------------------------------------15-----
D|---------------------------------------------------------------------------------------------------------------------------------------
A|---------------------------------------------------------------------------------------------------------------------------------------
E|---------------------------------------------------------------------------------------------------------------------------------------

Stave 3:

E|--
B|--
G|--
D|--
A|--
E|--

							http://www.guitartabcreator.com
Tab Notes
Transcribed from Ivan Salerno on Youtube
Instruments
{"strings":[[[".",".",".",".",16,15,13,15,13,16,15,13,15,13,".",".",".",".",".",".",".",13,".",".",".",".",".",".",".",".",".",".",".",".",".",".",".",".",13,15,"b",16,"b",15,"b",16,"p",13,15,"b",16],[13,16,"b",18,".",".",".",".",".",".",".",".",".",".",16,"b",18,13,".",".",".",".",16,13,".",".",".",".",".",".",".",".",".",".",".",".",".",13,".",".",".",".",".",".",".",".",".",".",".",".","."],[".",".",".",".",".",".",".",".",".",".",".",".",".",".",".",".",".",".",15,"b",17,".",".",".",15,"b",17,13,13,15,15,"b",17,13,".",".",13,".",".",".",".",".",".",".",".",".",".",".",".",".","."],[".",".",".",".",".",".",".",".",".",".",".",".",".",".",".",".",".",".",".",".",".",".",".",".",".",".",".",".",".",".",".",".",".",".",15,15,".",".",".",".",".",".",".",".",".",".",".",".",".",".","."],[".",".",".",".",".",".",".",".",".",".",".",".",".",".",".",".",".",".",".",".",".",".",".",".",".",".",".",".",".",".",".",".",".",".",".",".",".",".",".",".",".",".",".",".",".",".",".",".",".",".","."],[".",".",".",".",".",".",".",".",".",".",".",".",".",".",".",".",".",".",".",".",".",".",".",".",".",".",".",".",".",".",".",".",".",".",".",".",".",".",".",".",".",".",".",".",".",".",".",".",".",".","."]],[[13,15,"b",16,13,".",".",".",".","_",".",".",".",13,".",".",".",".",".",".",".",".",".",".",".",13,".",".",".",".",13,".",".",".",".","_","_",13,".",".",".",".","_"],[".",".",".",".",".",15,"b",16,13,"_",".",".",".",".",16,15,".",".",".",".",".",".",".",".",13,".",".",".",".",13,".",13,16,"b",18,"_","_",".",13,16,13,".","_"],[".",".",".",".",".",".",".",".",".","_",15,"b",17,".",".",".",15,"b",17,15,13,15,"b",17,".",".",15,"b",17,".",".",".",".",".",".","_","_",".",".",".",".",15,"_"],[".",".",".",".",".",".",".",".",".","_",".",".",".",".",".",".",".",".",".",".",".",".",".",".",".",".",".",".",".",".",".",".",".",".",".","_","_",".",".",".",".",".","_"],[".",".",".",".",".",".",".",".",".","_",".",".",".",".",".",".",".",".",".",".",".",".",".",".",".",".",".",".",".",".",".",".",".",".",".","_","_",".",".",".",".",".","_"],[".",".",".",".",".",".",".",".",".","_",".",".",".",".",".",".",".",".",".",".",".",".",".",".",".",".",".",".",".",".",".",".",".",".",".","_","_",".",".",".",".",".","_"]],[[],[],[],[],[],[]]],"numberofstrings":6,"notes":["E","B","G","D","A","E","B"],"capo":0,"stringnotes":["E4","B3","G3","D3","A2","E2"],"comments":["Stave 1:","Stave 2:","Stave 3:"],"timing":[["W","W",null,"W","W","W","W","W","W","W","W","W","W","W","W",null,"W","W","W",null,"W","W","W","W","W",null,"W","W","W","W","W",null,"W","W","W","W","W","W","W","W",null,"W",null,"W",null,"W",null,"W","W",null,"W"],["W","W",null,"W","W","W",null,"W","W",null,"W",null,"W","W","W","W","W",null,"W","W","W","W",null,"W","W","W","W",null,"W","W","W","W","W",null,"W",null,null,"W","W","W","W","W",null,"W","W","W","W","W","W","W"],[]],"timingvisible":false,"tabcounter":43,"stave":1,"totalstaves":3,"instrument":"6guitar","selectedtuning":"6_standard","version":"13"}

Member for

1 week
Submitted by Jamzy B on Thu, 2020-05-21 14:24