Sound will begin in 5 seconds

Mokena - Real friends

Chords
01234567891011121314151617181920212223
E
B
G
D
A
E
B
0 1 2 3 4 5 6 7 8 9 10 11 12 13 14 15 16 17 18 19 20 21 22 23
Song Science #1: How Pros Use 6 Chords to Write Hit Songs
(/) Slide Up  (\) Slide Down  (h) Hammer On  (p) Pull Off  (b) Bend (r) Release (v) Vibrato

Stave 1:

D|----------------|----------0-----1--|-------------------|--5--3--3--1--------|--
A|----------------|-------1-----1-----|-------------------|--------------0--1--|--
F|----------------|--0h2--------------|-------------------|--------------------|--
C|--3--------3h5--|-------------------|--10--10h12--8-----|--------------------|--
G|--3--------3----|-------------------|--8---8------8-----|--------------------|--
C|--3--------3----|-------------------|--8---8------8-----|--------------------|--

Stave 2:

D|-----------|-------------------------|--
A|-----------|--6--6--5-----5-----5/6--|--
F|-----------|--5--5--5-----5-----5----|--
C|--8--------|--3--3--3-----3-----3----|--
G|--8--------|-------------------------|--
C|--8--------|-------------------------|--

Stave 3:

D|--8-----8-----8-----8-----|--
A|-----6-----6-----6-----6--|--
F|--------------------------|--
C|--------------------------|--
G|--------------------------|--
C|--------------------------|--

Stave 4:

D|--------------------------|----------------------------------|--
A|--------------------------|----------------------------------|--
F|--------------------------|----------------------------------|--
C|--8--8--8--8--8--8--8--8--|--12--12--12--12--10--10--10--10--|--
G|--8--8--8--8--8--8--8--8--|--12--12--12--12--10--10--10--10--|--
C|--8--8--8--8--8--8--8--8--|--12--12--12--12--10--10--10--10--|--

Stave 5:

D|--8----------------------8---------------|--
A|-----10-----8--10-----------10-----8--6--|--
F|-----------------------------------------|--
C|-----------------------------------------|--
G|-----------------------------------------|--
C|-----------------------------------------|--

Stave 6:

D|--------------|--
A|--5--5--6--6--|--
F|--5--5--5--5--|--
C|--3--3--3--3--|--
G|--------------|--
C|--------------|--

http://www.guitartabcreator.com
Guitar Tab Creator is intended to store guitar tab created through the tool. It currently does not support in-line text editing. Any text you place in here will be lost. If you need to comment on your tab, please use the "Tab Notes" section located below.