Sadness and Sorrow

Chords

01234567891011121314151617181920212223
E
B
G
D
A
E
B
0 1 2 3 4 5 6 7 8 9 10 11 12 13 14 15 16 17 18 19 20 21 22 23
(/) Slide Up  (\) Slide Down  (h) Hammer On  (p) Pull Off  (b) Bend (r) Release (v) Vibrato

Stave 1:

E|--------------|--------------|-----------------5-----|--7--------------|-----------3--2--------|--2p0--------0-----0--3--|--
B|--7-----5-----|--5-----3-----|--3-----1-----5--------|--------7--------|--5--------------0-----|-------0-----3-----------|--
G|--0-----------|--------------|--2--------------------|-----------------|-----------------------|----------0--0-----------|--
D|--------------|--4-----------|-----------------------|-----------------|--------2--------------|-------------2-----------|--
A|--------------|--------------|--0--------------------|-----------------|-----------------------|-------------------------|--
E|--0-----------|--------------|-----------------------|--7--------------|--0--------------------|--0----------------------|--

Stave 2:

E|--5--------0-----------|--3--------3--2--3--5--------|--7--------5-----------|--2p0--------0-----0--3-----|--5--------0--------|--
B|--------5--------5-----|--------3-----3--------3-----|--------0--------7-----|-------0-----3--------------|--------5--------5--|--
G|-----0--------0--------|-----2--------2--------------|-----0--------7--------|----------0--0--------------|-----0--------0-----|--
D|-----------------------|--0--------------------------|-----------0-----------|-------------2--------------|--------------------|--
A|--3--------------------|-----------------------------|-----------------------|----------------------------|--3-----------------|--
E|-----------------------|-----------------------------|--3--------------------|--0-------------------------|--------------------|--

Stave 3:

E|--3--------3--2--3--5--------|--0-----3--2--------|--------3--2--0--2--3-----|--5--7--0--3-----2--------|--0-----------0--------------|--
B|--------3-----3--------3-----|--------------3-----|--------------0-----------|--------------------2-----|--------0-----------0--------|--
G|-----2--------2--------------|--------------------|--------------------------|--------------------------|-----0-----0-----0-----0-----|--
D|--0--------------------------|-----2--------------|-----2--------------------|--------------------------|-----------------------------|--
A|-----------------------------|--------------------|--------------------------|--3-----------2-----------|-----------------------------|--
E|-----------------------------|--0-----------------|--0-----------------------|--------------------------|--0--------------------------|--

Stave 4:

E|--3--5--3--2--------7-----|--7--------5-----------|--5--7--0--3-----2--------|--0-----------0-----------|--3--5--3--2--------|--
B|-----------------0--------|--------0--------7-----|--------------------0-----|--------0-----------0-----|-----------------0--|--
G|--------------------------|-----0--------7--------|--------------------------|-----0-----0-----0-----0--|--------------------|--
D|--------------------------|-----------0-----------|--------------------------|--------------------------|--------------------|--
A|--3-----------2-----------|-----------------------|--3-----------2-----------|--------------------------|--3-----------2-----|--
E|--------------------------|--3--------------------|--------------------------|--0-----------------------|--------------------|--

Stave 5:

E|--0-----------------------------|--0-----------------------|-------------------------------|----------------------------------|--
B|--------1-----5--5--5--5--5--5--|-----5--5--5--3--3--3-----|-------------3--3--5--3--5--3--|----------------------------------|--
G|-----0-----0--------------------|--------------------------|--2----------------------------|--7h4--2--0-----------------------|--
D|--------------------------------|--------------------------|--------0h2--------------------|-------------2--0-----0-----0--2--|--
A|--0-----------------------------|--------------------------|--0----------------------------|-------------------2-----2--------|--
E|--------------------------------|--0-----------------------|-------------------------------|--0-------------------------------|--

Stave 6:

E|----------------------------------|--------------------------------|----------------------|----------------|-----5--7--0--3-----2-----|--
B|----------------------------------|--------------------------------|----------------------|----------------|-----------------------3--|--
G|-----------0-----0h2--4--2-----0--|--0--------------------------0--|----------------------|----------------|--------------------------|--
D|--------2-----2-------------------|-----2--0--------------0--2-----|--2-----0--0h2--2--2--|-----0--0--0h2--|--------------------------|--
A|----------------------------------|-----------------0--2-----------|--0-------------------|----------------|-----3-----------2--------|--
E|----------------------------------|--0--------0--3-----------------|----------------------|--0-------------|--------------------------|--

Stave 7:

E|-----------------|--3--5--3--2--------7--|--7--------5--------|--5--7--0--3-----2-----|-----------------|--3--5--3--2-----------|--
B|--------3--------|-----------------0-----|--------0--------7--|--------------------3--|--------3--------|-----------------3--0--|--
G|-----0-----4-----|-----------------------|-----0--------7-----|-----------------------|-----0-----4-----|-----------------------|--
D|--2--------------|-----------------------|-----------0--------|-----------------------|--2--------------|-----------------------|--
A|-----------------|--3-----------2--------|--------------------|--3-----------2--------|-----------------|--3-----------2--------|--
E|-----------------|-----------------------|--3-----------------|-----------------------|-----------------|-----------------------|--

Stave 8:

E|--0--------0-----------0--|-----8--|--------0--2--3--7--10--12-----|--14-----15--|--
B|--------1--------1--3-----|--------|-----0-------------------------|-------------|--
G|-----0--------0-----------|--------|-------------------------------|-------------|--
D|--------------------------|--------|--2----------------------------|-------------|--
A|--3-----------------------|--------|-------------------------------|-------------|--
E|--------------------------|--------|-------------------------------|-------------|--

							http://www.guitartabcreator.com
Instruments
{"strings":[[[".",".",".",".","|",".",".",".",".","|",".",".",".",".",".",5,".","|",7,".",".",".",".","|",".",".",".",3,2,".",".","|",2,"p",0,".",".",0,".",0,3,"|"],[7,".",5,".","|",5,".",3,".","|",3,".",1,".",5,".",".","|",".",".",7,".",".","|",5,".",".",".",".",0,".","|",".",".",".",0,".",3,".",".",".","|"],[0,".",".",".","|",".",".",".",".","|",2,".",".",".",".",".",".","|",".",".",".",".",".","|",".",".",".",".",".",".",".","|",".",".",".",".",0,0,".",".",".","|"],[".",".",".",".","|",4,".",".",".","|",".",".",".",".",".",".",".","|",".",".",".",".",".","|",".",".",2,".",".",".",".","|",".",".",".",".",".",2,".",".",".","|"],[".",".",".",".","|",".",".",".",".","|",0,".",".",".",".",".",".","|",".",".",".",".",".","|",".",".",".",".",".",".",".","|",".",".",".",".",".",".",".",".",".","|"],[0,".",".",".","|",".",".",".",".","|",".",".",".",".",".",".",".","|",7,".",".",".",".","|",0,".",".",".",".",".",".","|",0,".",".",".",".",".",".",".",".","|"]],[[5,".",".",0,".",".",".","|",3,".",".",3,2,3,5,".",".","|",7,".",".",5,".",".",".","|",2,"p",0,".",".",0,".",0,3,".","|",5,".",".",0,".",".","|"],[".",".",5,".",".",5,".","|",".",".",3,".",3,".",".",3,".","|",".",".",0,".",".",7,".","|",".",".",".",0,".",3,".",".",".",".","|",".",".",5,".",".",5,"|"],[".",0,".",".",0,".",".","|",".",2,".",".",2,".",".",".",".","|",".",0,".",".",7,".",".","|",".",".",".",".",0,0,".",".",".",".","|",".",0,".",".",0,".","|"],[".",".",".",".",".",".",".","|",0,".",".",".",".",".",".",".",".","|",".",".",".",0,".",".",".","|",".",".",".",".",".",2,".",".",".",".","|",".",".",".",".",".",".","|"],[3,".",".",".",".",".",".","|",".",".",".",".",".",".",".",".",".","|",".",".",".",".",".",".",".","|",".",".",".",".",".",".",".",".",".",".","|",3,".",".",".",".",".","|"],[".",".",".",".",".",".",".","|",".",".",".",".",".",".",".",".",".","|",3,".",".",".",".",".",".","|",0,".",".",".",".",".",".",".",".",".","|",".",".",".",".",".",".","|"]],[[3,".",".",3,2,3,5,".",".","|",0,".",3,2,".",".","|",".",".",3,2,0,2,3,".","|",5,7,0,3,".",2,".",".","|",0,".",".",".",0,".",".",".",".","|"],[".",".",3,".",3,".",".",3,".","|",".",".",".",".",3,".","|",".",".",".",".",0,".",".",".","|",".",".",".",".",".",".",2,".","|",".",".",0,".",".",".",0,".",".","|"],[".",2,".",".",2,".",".",".",".","|",".",".",".",".",".",".","|",".",".",".",".",".",".",".",".","|",".",".",".",".",".",".",".",".","|",".",0,".",0,".",0,".",0,".","|"],[0,".",".",".",".",".",".",".",".","|",".",2,".",".",".",".","|",".",2,".",".",".",".",".",".","|",".",".",".",".",".",".",".",".","|",".",".",".",".",".",".",".",".",".","|"],[".",".",".",".",".",".",".",".",".","|",".",".",".",".",".",".","|",".",".",".",".",".",".",".",".","|",3,".",".",".",2,".",".",".","|",".",".",".",".",".",".",".",".",".","|"],[".",".",".",".",".",".",".",".",".","|",0,".",".",".",".",".","|",0,".",".",".",".",".",".",".","|",".",".",".",".",".",".",".",".","|",0,".",".",".",".",".",".",".",".","|"]],[[3,5,3,2,".",".",7,".","|",7,".",".",5,".",".",".","|",5,7,0,3,".",2,".",".","|",0,".",".",".",0,".",".",".","|",3,5,3,2,".",".","|"],[".",".",".",".",".",0,".",".","|",".",".",0,".",".",7,".","|",".",".",".",".",".",".",0,".","|",".",".",0,".",".",".",0,".","|",".",".",".",".",".",0,"|"],[".",".",".",".",".",".",".",".","|",".",0,".",".",7,".",".","|",".",".",".",".",".",".",".",".","|",".",0,".",0,".",0,".",0,"|",".",".",".",".",".",".","|"],[".",".",".",".",".",".",".",".","|",".",".",".",0,".",".",".","|",".",".",".",".",".",".",".",".","|",".",".",".",".",".",".",".",".","|",".",".",".",".",".",".","|"],[3,".",".",".",2,".",".",".","|",".",".",".",".",".",".",".","|",3,".",".",".",2,".",".",".","|",".",".",".",".",".",".",".",".","|",3,".",".",".",2,".","|"],[".",".",".",".",".",".",".",".","|",3,".",".",".",".",".",".","|",".",".",".",".",".",".",".",".","|",0,".",".",".",".",".",".",".","|",".",".",".",".",".",".","|"]],[[0,".",".",".",".",".",".",".",".",".","|",0,".",".",".",".",".",".",".","|",".",".",".",".",".",".",".",".",".",".",".","|",".",".",".",".",".",".",".",".",".",".",".",".","|"],[".",".",1,".",5,5,5,5,5,5,"|",".",5,5,5,3,3,3,".","|",".",".",".",".",".",3,3,5,3,5,3,"|",".",".",".",".",".",".",".",".",".",".",".",".","|"],[".",0,".",0,".",".",".",".",".",".","|",".",".",".",".",".",".",".",".","|",2,".",".",".",".",".",".",".",".",".",".","|",7,"h",4,2,0,".",".",".",".",".",".",".","|"],[".",".",".",".",".",".",".",".",".",".","|",".",".",".",".",".",".",".",".","|",".",".",0,"h",2,".",".",".",".",".",".","|",".",".",".",".",".",2,0,".",0,".",0,2,"|"],[0,".",".",".",".",".",".",".",".",".","|",".",".",".",".",".",".",".",".","|",0,".",".",".",".",".",".",".",".",".",".","|",".",".",".",".",".",".",".",2,".",2,".",".","|"],[".",".",".",".",".",".",".",".",".",".","|",0,".",".",".",".",".",".",".","|",".",".",".",".",".",".",".",".",".",".",".","|",0,".",".",".",".",".",".",".",".",".",".",".","|"]],[[".",".",".",".",".",".",".",".",".",".",".",".","|",".",".",".",".",".",".",".",".",".",".","|",".",".",".",".",".",".",".",".","|",".",".",".",".",".",".","|",".",5,7,0,3,".",2,".","|"],[".",".",".",".",".",".",".",".",".",".",".",".","|",".",".",".",".",".",".",".",".",".",".","|",".",".",".",".",".",".",".",".","|",".",".",".",".",".",".","|",".",".",".",".",".",".",".",3,"|"],[".",".",".",0,".",0,"h",2,4,2,".",0,"|",0,".",".",".",".",".",".",".",".",0,"|",".",".",".",".",".",".",".",".","|",".",".",".",".",".",".","|",".",".",".",".",".",".",".",".","|"],[".",".",2,".",2,".",".",".",".",".",".",".","|",".",2,0,".",".",".",".",0,2,".","|",2,".",0,0,"h",2,2,2,"|",".",0,0,0,"h",2,"|",".",".",".",".",".",".",".",".","|"],[".",".",".",".",".",".",".",".",".",".",".",".","|",".",".",".",".",".",0,2,".",".",".","|",0,".",".",".",".",".",".",".","|",".",".",".",".",".",".","|",".",3,".",".",".",2,".",".","|"],[".",".",".",".",".",".",".",".",".",".",".",".","|",0,".",".",0,3,".",".",".",".",".","|",".",".",".",".",".",".",".",".","|",0,".",".",".",".",".","|",".",".",".",".",".",".",".",".","|"]],[[".",".",".",".",".","|",3,5,3,2,".",".",7,"|",7,".",".",5,".",".","|",5,7,0,3,".",2,".","|",".",".",".",".",".","|",3,5,3,2,".",".",".","|"],[".",".",3,".",".","|",".",".",".",".",".",0,".","|",".",".",0,".",".",7,"|",".",".",".",".",".",".",3,"|",".",".",3,".",".","|",".",".",".",".",".",3,0,"|"],[".",0,".",4,".","|",".",".",".",".",".",".",".","|",".",0,".",".",7,".","|",".",".",".",".",".",".",".","|",".",0,".",4,".","|",".",".",".",".",".",".",".","|"],[2,".",".",".",".","|",".",".",".",".",".",".",".","|",".",".",".",0,".",".","|",".",".",".",".",".",".",".","|",2,".",".",".",".","|",".",".",".",".",".",".",".","|"],[".",".",".",".",".","|",3,".",".",".",2,".",".","|",".",".",".",".",".",".","|",3,".",".",".",2,".",".","|",".",".",".",".",".","|",3,".",".",".",2,".",".","|"],[".",".",".",".",".","|",".",".",".",".",".",".",".","|",3,".",".",".",".",".","|",".",".",".",".",".",".",".","|",".",".",".",".",".","|",".",".",".",".",".",".",".","|"]],[[0,".",".",0,".",".",".",0,"|",".",8,"|",".",".",0,2,3,7,10,12,".","|",14,".",15,"|"],[".",".",1,".",".",1,3,".","|",".",".","|",".",0,".",".",".",".",".",".",".","|",".",".",".","|"],[".",0,".",".",0,".",".",".","|",".",".","|",".",".",".",".",".",".",".",".",".","|",".",".",".","|"],[".",".",".",".",".",".",".",".","|",".",".","|",2,".",".",".",".",".",".",".",".","|",".",".",".","|"],[3,".",".",".",".",".",".",".","|",".",".","|",".",".",".",".",".",".",".",".",".","|",".",".",".","|"],[".",".",".",".",".",".",".",".","|",".",".","|",".",".",".",".",".",".",".",".",".","|",".",".",".","|"]]],"numberofstrings":6,"notes":["E","B","G","D","A","E","B"],"capo":0,"stringnotes":["E4","B3","G3","D3","A2","E2"],"comments":["Stave 1:","Stave 2:","Stave 3:","Stave 4:","Stave 5:","Stave 6:","Stave 7:","Stave 8:"],"timing":[[null,"W",null,"W",null,null,"W",null,"W",null,null,"W",null,"W",null,"W","W",null,null,"W","W","W",null,null,null,"W",null,"W",null,"W","W",null,null,"W",null,"W","W","W","W",null,"W","W"],[null,"W","W","W","W","W","W",null,null,"W","W","W","W","W","W","W","W",null,null,"W","W","W","W","W","W",null,null,"W",null,"W","W","W","W",null,"W","W",null,null,"W","W","W","W","W","W"],[null,"W","W","W","W","W","W","W","W",null,null,"W","W","W","W","W",null,null,"W","W","W","W","W","W","W",null,null,"W","W","W","W","W","W","W",null,null,"W","W","W","W","W","W","W","W"],[null,"W","W","W","W","W","W","W",null,null,"W","W","W","W","W","W",null,null,"W","W","W","W","W","W","W",null,null,"W","W","W","W","W","W","W","W",null,"W","W","W","W","W","W"],[null,"W","W","W","W","W","W","W","W","W",null,"W","W","W","W","W","W","W","W",null,null,"W",null,"W",null,"W","W","W","W","W","W","W",null,"W",null,"W","W","W","W","W","W","W","W","W","W"],[null,"W",null,"W","W","W","W",null,"W","W","W",null,"W",null,"W","W","W",null,"W","W","W","W","W","W",null,"W",null,"W","W",null,"W","W","W",null,"W","W","W","W",null,"W",null,null,"W","W","W","W","W","W","W"],[null,"W","W","W","W",null,null,"W","W","W","W","W","W","W",null,"W","W","W","W","W","W",null,"W","W","W","W","W","W","W",null,"W","W","W","W",null,null,"W","W","W","W","W","W","W"],[null,"W","W","W","W","W","W","W","W",null,null,"W",null,"W","W","W","W","W","W","W",null,"W",null,"W",null,"W"]],"timingvisible":false,"tabcounter":26,"stave":7,"totalstaves":8,"instrument":"6guitar","selectedtuning":"6_standard","version":"13"}

Member for

2 weeks 3 days
Submitted by JamesZurita on Mon, 2020-06-29 21:53