Sound will begin in 5 seconds

1A

01234567891011121314151617181920212223
E
B
G
D
A
E
B
0 1 2 3 4 5 6 7 8 9 10 11 12 13 14 15 16 17 18 19 20 21 22 23
Song Science #1: How Pros Use 6 Chords to Write Hit Songs
(/) Slide Up  (\) Slide Down  (h) Hammer On  (p) Pull Off  (b) Bend (r) Release (v) Vibrato

Stave 1:

Db|-------------------------------------------------------------------------
Ab|-------------------------------------------------------------------------
E |-------------------------------------------------------------------------
B |-------------------------------------------------------------7-----5-----
Gb|----------------8--5--------------7--4-----------------8--5-----8-----7--
B |--x-----x--x--x--------x--x--x--x--------x-----x--x--x--------------------

Stave 2:

Db|--------------------------------------------------------------------------------
Ab|--------------------------------------------------------------------------------
E |--------------------------------------------------------------------------------
B |----------------------------------------------------------------7h8h7--5--------
Gb|----------------8--5--------------7--4-----------------8--5---------------8--7--
B |--x-----x--x--x--------x--x--x--x--------x-----x--x--x---------------------8--7--

Stave 3:

Db|-------------------------------------------------------------------------
Ab|-------------------------------------------------------------------------
E |-------------------------------------------------------------------------
B |-------------------------------------------------------------7-----5-----
Gb|----------------8--5--------------7--4-----------------8--5-----8-----7--
B |--x-----x--x--x--------x--x--x--x--------x-----x--x--x--------------------

Stave 4:

Db|--------------------------------------------------------------------------------------
Ab|--------------------------------------------------------------------------------------
E |--------------------------------------------------------------------------------------
B |----------------------------------------------------------------7h8h7--5--------------
Gb|----------------8--5--------------7--4-----------------8--5---------------8--7--0-----
B |--x-----x--x--x--------x--x--x--x--------x-----x--x--x---------------------8--7--0-----

Stave 5:

Db|------------------------------------------------------------------------------------------------------
Ab|------------------------------------------------------------------------------------------------------
E |------------------------------------------------------------------------------------------------------
B |------------------------------------------------------------------------------------------------------
Gb|------------------------------------------------------------------------------------------------5-----
B |--x-----x--x--x--x-----x-----x--x--x--x-----x-----x--x--x--x-----x-----x--x--x--x-----x--x--x--x-----8--

Stave 6:

Db|------------------------------------------------------------------------------------------------------
Ab|------------------------------------------------------------------------------------------------------
E |------------------------------------------------------------------------------------------------------
B |------------------------------------------------------------------------------------------------------
Gb|----------------------------------------------------------------------------------5-------7h8h7-------
B |--x-----x--x--x--x-----x-----x--x--x--x-----x-----x--x--x--x-----x-----x--x--x--x-----8h7---------8h7--

Stave 7:

Db|-----------------------------------------------------------------------------------------------
Ab|-----------------------------------------------------------------------------------------------
E |-----------------------------------------------------------------------------------------------
B |--------------------------------------------------------------------------------------------3--
Gb|--0-----7-----10-----8-----7h8h7--4--5--7--5--4--1-----1-----1-----1-----1/4--------4/5-----5--
B |--0--x-----x------x---------------------------------x-----x-----x-----x-------x--x-------x-----

Stave 8:

Db|--------------------
Ab|--------------------
E |--------------------
B |--------------------
Gb|-------7-----10-----
B |--x--x-----x---------

http://www.guitartabcreator.com
Guitar Tab Creator is intended to store guitar tab created through the tool. It currently does not support in-line text editing. Any text you place in here will be lost. If you need to comment on your tab, please use the "Tab Notes" section located below.