Joe Bonamassa Happier Times Solo

01234567891011121314151617181920212223
E
B
G
D
A
E
B
0 1 2 3 4 5 6 7 8 9 10 11 12 13 14 15 16 17 18 19 20 21 22 23
(/) Slide Up  (\) Slide Down  (h) Hammer On  (p) Pull Off  (b) Bend (r) Release (v) Vibrato

Stave 1:

E|------------------------------------------------------------------------------------------------3---------------------------
B|---------------------------------------------------------------------------------------------------16v-----v-----v--15--15--
G|---------------7------------------------------------------------------------------------------------------------------------
D|--8------v--v-----7--7--7--7--7--------3--3--3-----3------------------------------------------------------------------------
A|------------------------------------------------------6h---6p---3--6--3----------------6------------------------------------
E|----------------------------------------------------------------------------8p6--6--8---------------------------------------

Stave 2:

E|----------------------------------------------18--18--18--18p15--15--15v--v-----18b20------18--18--18--18-----------------------
B|-----13--13--13h15--15--13-----13--18b20--18-------------------------------------------20------------------20------------16/20--
G|---------------------------------------------------------------------------------------------------------------20b22b20---------
D|--------------------------------------------------------------------------------------------------------------------------------
A|--------------------------------------------------------------------------------------------------------------------------------
E|--------------------------------------------------------------------------------------------------------------------------------

							http://www.guitartabcreator.com
Chords

Instruments
{"strings":[[[".",".",".",".","_",".",".",".",".",".",".","_","_",".",".",".","_",".",".",".","_",".",".","_",".",".",".","_",".",".",".",".",".",".","_","_",3,".",".","_",".","_",".",".","."],[".",".",".",".","_",".",".",".",".",".",".","_","_",".",".",".","_",".",".",".","_",".",".","_",".",".",".","_",".",".",".",".",".",".","_","_",".",16,"v","_","v","_","v",15,15],[".",".",".",".","_",7,".",".",".",".",".","_","_",".",".",".","_",".",".",".","_",".",".","_",".",".",".","_",".",".",".",".",".",".","_","_",".",".",".","_",".","_",".",".","."],[8,".",".","v","v",".",7,7,7,7,7,"_","_",3,3,3,"_",3,".",".","_",".",".","_",".",".",".","_",".",".",".",".",".",".","_","_",".",".",".","_",".","_",".",".","."],[".",".",".",".","_",".",".",".",".",".",".","_","_",".",".",".","_",".",6,"h","_",6,"p","_",3,6,3,"_",".",".",".",".",".",6,"_","_",".",".",".","_",".","_",".",".","."],[".",".",".",".","_",".",".",".",".",".",".","_","_",".",".",".","_",".",".",".","_",".",".","_",".",".",".","_",8,"p",6,6,8,".","_","_",".",".",".","_",".","_",".",".","."]],[[".",".",".",".",".",".",".",".","_",".",".",".",".",".",18,18,18,18,"p",15,15,15,"v","v","_",18,"b",20,".",18,18,18,18,".",".",".",".",".",".",".",".","."],[".",13,13,13,"h",15,15,13,"_",13,18,"b",20,18,".",".",".",".",".",".",".",".",".",".","_",".",".",".",20,".",".",".",".",20,".",".",".",".",".",16,"/",20],[".",".",".",".",".",".",".",".","_",".",".",".",".",".",".",".",".",".",".",".",".",".",".",".","_",".",".",".",".",".",".",".",".",".",20,"b",22,"b",20,".",".","."],[".",".",".",".",".",".",".",".","_",".",".",".",".",".",".",".",".",".",".",".",".",".",".",".","_",".",".",".",".",".",".",".",".",".",".",".",".",".",".",".",".","."],[".",".",".",".",".",".",".",".","_",".",".",".",".",".",".",".",".",".",".",".",".",".",".",".","_",".",".",".",".",".",".",".",".",".",".",".",".",".",".",".",".","."],[".",".",".",".",".",".",".",".","_",".",".",".",".",".",".",".",".",".",".",".",".",".",".",".","_",".",".",".",".",".",".",".",".",".",".",".",".",".",".",".",".","."]]],"numberofstrings":6,"notes":["E","B","G","D","A","E","B"],"capo":0,"stringnotes":["E4","B3","G3","D3","A2","E2"],"comments":["Stave 1:","Stave 2:"],"timing":[["W","W","W",null,"W","W","W","W","W","W","W","W","W",null,null,"W","W","W",null,"W","W",null,"W","W","W","W","W","W","W",null,"W",null,"W","W","W","W","W","W","W","W",null,null,null,null,null,"W","W","W","W","W","W"],[null,"W","W","W",null,"W","W","W",null,"W","W",null,"W","W","W","W","W","W",null,"W","W","W",null,null,null,"W",null,"W","W","W","W","W","W","W","W",null,"W",null,"W","W",null,"W"]],"timingvisible":false,"tabcounter":42,"stave":1,"totalstaves":2,"instrument":"6guitar","selectedtuning":"6_standard","version":"13"}

Member for

2 months
Submitted by jakita on Mon, 2021-03-08 05:57