Sound will begin in 5 seconds

Sleep

01234567891011121314151617181920212223
E
B
G
D
A
E
B
0 1 2 3 4 5 6 7 8 9 10 11 12 13 14 15 16 17 18 19 20 21 22 23
Song Science #1: How Pros Use 6 Chords to Write Hit Songs
(/) Slide Up  (\) Slide Down  (h) Hammer On  (p) Pull Off  (b) Bend (r) Release (v) Vibrato

Stave 1:

E|------------------------------------------------------------------
B|------------------------------------------------------------------
G|------14------14------14------17------17------14------14------14--
D|--15------15------15------15------15------15------15------15------
A|------------------------------------------------------------------
E|------------------------------------------------------------------

Stave 2:

E|------------------------------------------------------------------
B|------------------------------------------------------------------
G|------12------12------12------15------15------15------12------12--
D|--13------13------13------13------13------13------13------13------
A|------------------------------------------------------------------
E|------------------------------------------------------------------

Stave 3:

E|------------------------------------------------------------------
B|------------------------------------------------------------------
G|------14------14------14------17------17------14------14------14--
D|--15------15------15------15------15------15------15------15------
A|------------------------------------------------------------------
E|------------------------------------------------------------------

Stave 4:

E|------------------------------------------------------------------
B|------------------------------------------------------------------
G|------12------12------12------15------15------15------12------12--
D|--13------13------13------13------13------13------13------13------
A|------------------------------------------------------------------
E|------------------------------------------------------------------

Stave 5:

E|------------------------------------------------------------------
B|------------------------------------------------------------------
G|------10------10------10------13------13------10------10------10--
D|--11------11------11------11------11------11------11------11------
A|------------------------------------------------------------------
E|------------------------------------------------------------------

Stave 6:

E|-------------------------------------------------------------
B|-------------------------------------------------------------
G|------9------9------9------12------12------12------9------9--
D|--10-----10-----10-----10------10------10------10-----10-----
A|-------------------------------------------------------------
E|-------------------------------------------------------------

Stave 7:

E|------------------------------------------------------------------
B|------------------------------------------------------------------
G|------10------10------10------13------13------13------10------10--
D|--11------11------11------11------11------11------11------11------
A|------------------------------------------------------------------
E|------------------------------------------------------------------

Stave 8:

E|----------------------------------
B|----------------------------------
G|------9------9------9------9--12--
D|--10-----10-----10-----10---------
A|----------------------------------
E|----------------------------------

Stave 9:

E|--------------------------------------------------------------------------
B|--------------------------------------------------------------------------
G|--------------------------------------------------------------------------
D|--------------------5--8-----8--------------------------------5--8-----5--
A|-----0-----0-----6--------6-----6-----3--------0--1--0-----6--------6-----
E|--1-----1-----1--------------------1-----1--1-----------1-----------------

Stave 10:

E|--------------------------------------------------
B|--------------------------------------------------
G|-----------------5-----------------------------5--
D|--------------5-----5-----5-----------------5-----
A|--4--6--8--3-----------3-----3--4--6--8--3--------
E|--------------------------------------------------

Stave 11:

E|-----------------------------------------------
B|-----------------------------------------------
G|-----------------------------------------------
D|--------7--------7--------8--------5--6--5-----
A|--8--8-----8--8-----8--6-----6--6-----------6--
E|-----------------------------------------------

http://www.guitartabcreator.com
Guitar Tab Creator is intended to store guitar tab created through the tool. It currently does not support in-line text editing. Any text you place in here will be lost. If you need to comment on your tab, please use the "Tab Notes" section located below.