Sound will begin in 5 seconds

Seascape

01234567891011121314151617181920212223
E
B
G
D
A
E
B
0 1 2 3 4 5 6 7 8 9 10 11 12 13 14 15 16 17 18 19 20 21 22 23
Song Science #1: How Pros Use 6 Chords to Write Hit Songs
(/) Slide Up  (\) Slide Down  (h) Hammer On  (p) Pull Off  (b) Bend (r) Release (v) Vibrato

Stave 1:

E|------------------------------------------------------
B|------------------------------------------------------
G|------------------------------------------------------
D|------------------------------------------------------
A|------------------------------------------------------
E|--9--9--9--9--9--9--9--9--9--9--9--9--9--7--9--10--9--

Stave 2:

E|-------------------------------------------------------
B|-------------------------------------------------------
G|-------------------------------------------------------
D|-------------------------------------------------------
A|---------------------------------------------9---------
E|--9--9--9--9--9--9--9--9--9--9--9--9--9--10-----10--9--

Stave 3:

E|-----------------
B|-----------------
G|-----------------
D|-----------------
A|-----------------
E|--2--2--2--2--2--

Stave 4:

E|-----------------------------
B|-----------------------------
G|-----------------------------
D|-----------------------------
A|-----------------------------
E|--9--9--7--7--5--2--2--2--2--

Stave 5:

E|-----------------------------------------------------------------
B|-----------------------------------------------------------------
G|-----------------------------------------------------------------
D|-----------------------------------------------------------------
A|-----------------------------------------------------------------
E|--9--7--7--5--2--2--2--2--2--2--2--2--2--2--2--2--2--2--2--2--2--

Stave 6:

E|----------------------------
B|----------------------------
G|----------------------------
D|------------9--11-----------
A|--7--9--11------------------
E|-------------------9--7--9--

Stave 7:

E|-----------------------------------
B|-----------------------------------
G|-----------------------------------
D|------------9--11--11--------------
A|--7--9--11-------------7-----------
E|--------------------------9--7--9--

Stave 8:

E|-------------------------------------------------------
B|-------------------------------------------------------
G|-------------------------------------------------------
D|-------------------------------------------------------
A|---------------------------------------------9---------
E|--9--9--9--9--9--9--9--9--9--9--9--9--9--10-----10--9--

Stave 9:

E|--------------------------------------------------
B|--------------------------------------------------
G|--------------------------------------------------
D|--------------------------------------------------
A|--------------------------------------------------
E|--9--9--9--9--9--9--9--9--9--9--9--9--9--9--9--9--

Stave 10:

E|------------------------------------
B|------------------------------------
G|------------------------------------
D|--9-----9-----9-----9-----9---------
A|------------------------------------
E|-----9-----9-----9-----9-----9--10--

Stave 11:

E|------------------------------------
B|------------------------------------
G|------------------------------------
D|--9-----9-----9-----9-----9---------
A|------------------------------------
E|-----9-----9-----9-----9-----9--10--

Stave 12:

E|--------------------------------
B|--------------------------------
G|--------------------------------
D|--------------------------------
A|--------------------------------
E|--9--9--9--9--9--9--9--9--9--9--

Stave 13:

E|--------------------------------
B|--------------------------------
G|--------------------------------
D|--------------------------------
A|--------------------------------
E|--6--7--7--7--7--6--7--7--7--7--

Stave 14:

E|--------------------------------
B|--------------------------------
G|--------------------------------
D|--------------------------------
A|--------------------------------
E|--4--5--5--5--5--4--5--5--5--5--

Stave 15:

E|--------------------------------
B|--------------------------------
G|--------------------------------
D|--------------------------------
A|--------------------------------
E|--6--8--7--7--7--6--7--7--7--7--

Stave 16:

E|-----
B|-----
G|-----
D|-----
A|-----
E|--2--

http://www.guitartabcreator.com
Guitar Tab Creator is intended to store guitar tab created through the tool. It currently does not support in-line text editing. Any text you place in here will be lost. If you need to comment on your tab, please use the "Tab Notes" section located below.