VINE A ADORARTE EN E

Chords

01234567891011121314151617181920212223
E
B
G
D
A
E
B
0 1 2 3 4 5 6 7 8 9 10 11 12 13 14 15 16 17 18 19 20 21 22 23
(/) Slide Up  (\) Slide Down  (h) Hammer On  (p) Pull Off  (b) Bend (r) Release (v) Vibrato

ESTROFA

E|-----------0-----------0-----------0-----------0-----------0-----------0-----------0-----------0--
B|--------------------------------------------------------------------------------------------------
G|--------1-----------4-----------2-----------2-----------1-----------4-----------2-----------2-----
D|-----2-----------4-----------4-----------2-----------2-----------4-----------2-----------2--------
A|--------------2-----------4-----------0-----------------------2-----------0-----------0-----------
E|--0-----------------------------------------------0-----------------------------------------------



E|-----------0-----------0-----------0-----------0-----------0-----------0-----------0-----------0-----0--
B|-----------------------------------------------------------------------------------------------------0--
G|--------1-----------4-----------2-----------2-----------1-----------4-----------2-----------2--------2--
D|-----2-----------4-----------4-----------2-----------2-----------4-----------2-----------2-----------2--
A|--------------2-----------4-----------0-----------------------2-----------0-----------0--------------0--
E|--0-----------------------------------------------0-----------------------------------------------------

CORO

E|-----------0-----------0-----------0-----------0-----------0-----------0-----------0-----------0--
B|--------------------------------------------------------------------------------------------------
G|--------1-----------1-----------4-----------4-----------6-----------6-----------2-----------2-----
D|-----2-----------2-----------4-----------4-----------6-----------6-----------2-----------2--------
A|--------------------------2-----------2-----------4-----------4-----------0-----------0-----------
E|--0-----------0-----------------------------------------------------------------------------------



E|-----------0-----------0-----------0-----------0-----------0-----------0-----------0-----------0--
B|--------------------------------------------------------------------------------------------------
G|--------1-----------1-----------4-----------4-----------6-----------6-----------2-----------2-----
D|-----2-----------2-----------4-----------4-----------6-----------6-----------2-----------2--------
A|--------------------------2-----------2-----------4-----------4-----------0-----------0-----------
E|--0-----------0-----------------------------------------------------------------------------------

PUENTE

E|-----------0-----------0-----------0-----------0-----------0-----------0-----------0-----------0--
B|--------------------------------------------------------------------------------------------------
G|--------4-----------6-----------2-----------2-----------4-----------6-----------2-----------2-----
D|-----4-----------6-----------2-----------2-----------4-----------6-----------2-----------2--------
A|--2-----------4-----------0-----------0-----------2-----------4-----------0-----------0-----------
E|--------------------------------------------------------------------------------------------------

							http://www.guitartabcreator.com
Instruments
{"strings":[[[".",".",".",0,".",".",".",0,".",".",".",0,".",".",".",0,".",".",".",0,".",".",".",0,".",".",".",0,".",".",".",0],[".",".",".",".",".",".",".",".",".",".",".",".",".",".",".",".",".",".",".",".",".",".",".",".",".",".",".",".",".",".",".","."],[".",".",1,".",".",".",4,".",".",".",2,".",".",".",2,".",".",".",1,".",".",".",4,".",".",".",2,".",".",".",2,"."],[".",2,".",".",".",4,".",".",".",4,".",".",".",2,".",".",".",2,".",".",".",4,".",".",".",2,".",".",".",2,".","."],[".",".",".",".",2,".",".",".",4,".",".",".",0,".",".",".",".",".",".",".",2,".",".",".",0,".",".",".",0,".",".","."],[0,".",".",".",".",".",".",".",".",".",".",".",".",".",".",".",0,".",".",".",".",".",".",".",".",".",".",".",".",".",".","."]],[[".",".",".",0,".",".",".",0,".",".",".",0,".",".",".",0,".",".",".",0,".",".",".",0,".",".",".",0,".",".",".",0,"_",0],[".",".",".",".",".",".",".",".",".",".",".",".",".",".",".",".",".",".",".",".",".",".",".",".",".",".",".",".",".",".",".",".","_",0],[".",".",1,".",".",".",4,".",".",".",2,".",".",".",2,".",".",".",1,".",".",".",4,".",".",".",2,".",".",".",2,".","_",2],[".",2,".",".",".",4,".",".",".",4,".",".",".",2,".",".",".",2,".",".",".",4,".",".",".",2,".",".",".",2,".",".","_",2],[".",".",".",".",2,".",".",".",4,".",".",".",0,".",".",".",".",".",".",".",2,".",".",".",0,".",".",".",0,".",".",".","_",0],[0,".",".",".",".",".",".",".",".",".",".",".",".",".",".",".",0,".",".",".",".",".",".",".",".",".",".",".",".",".",".",".","_","."]],[[".",".",".",0,".",".",".",0,".",".",".",0,".",".",".",0,".",".",".",0,".",".",".",0,".",".",".",0,".",".",".",0],[".",".",".",".",".",".",".",".",".",".",".",".",".",".",".",".",".",".",".",".",".",".",".",".",".",".",".",".",".",".",".","."],[".",".",1,".",".",".",1,".",".",".",4,".",".",".",4,".",".",".",6,".",".",".",6,".",".",".",2,".",".",".",2,"."],[".",2,".",".",".",2,".",".",".",4,".",".",".",4,".",".",".",6,".",".",".",6,".",".",".",2,".",".",".",2,".","."],[".",".",".",".",".",".",".",".",2,".",".",".",2,".",".",".",4,".",".",".",4,".",".",".",0,".",".",".",0,".",".","."],[0,".",".",".",0,".",".",".",".",".",".",".",".",".",".",".",".",".",".",".",".",".",".",".",".",".",".",".",".",".",".","."]],[[".",".",".",0,".",".",".",0,".",".",".",0,".",".",".",0,".",".",".",0,".",".",".",0,".",".",".",0,".",".",".",0],[".",".",".",".",".",".",".",".",".",".",".",".",".",".",".",".",".",".",".",".",".",".",".",".",".",".",".",".",".",".",".","."],[".",".",1,".",".",".",1,".",".",".",4,".",".",".",4,".",".",".",6,".",".",".",6,".",".",".",2,".",".",".",2,"."],[".",2,".",".",".",2,".",".",".",4,".",".",".",4,".",".",".",6,".",".",".",6,".",".",".",2,".",".",".",2,".","."],[".",".",".",".",".",".",".",".",2,".",".",".",2,".",".",".",4,".",".",".",4,".",".",".",0,".",".",".",0,".",".","."],[0,".",".",".",0,".",".",".",".",".",".",".",".",".",".",".",".",".",".",".",".",".",".",".",".",".",".",".",".",".",".","."]],[[".",".",".",0,".",".",".",0,".",".",".",0,".",".",".",0,".",".",".",0,".",".",".",0,".",".",".",0,".",".",".",0],[".",".",".",".",".",".",".",".",".",".",".",".",".",".",".",".",".",".",".",".",".",".",".",".",".",".",".",".",".",".",".","."],[".",".",4,".",".",".",6,".",".",".",2,".",".",".",2,".",".",".",4,".",".",".",6,".",".",".",2,".",".",".",2,"."],[".",4,".",".",".",6,".",".",".",2,".",".",".",2,".",".",".",4,".",".",".",6,".",".",".",2,".",".",".",2,".","."],[2,".",".",".",4,".",".",".",0,".",".",".",0,".",".",".",2,".",".",".",4,".",".",".",0,".",".",".",0,".",".","."],[".",".",".",".",".",".",".",".",".",".",".",".",".",".",".",".",".",".",".",".",".",".",".",".",".",".",".",".",".",".",".","."]]],"numberofstrings":6,"notes":["E","B","G","D","A","E","B"],"capo":0,"stringnotes":["E4","B3","G3","D3","A2","E2"],"comments":["ESTROFA","","CORO","","PUENTE"],"timing":[[null,null,null,null,null,null,null,null,null,null,null,null,null,null,null,null,null,null,null,null,null,null,null,null,null,null,null,null,null,null,null,null,null,null],[null,null,null,null,null,null,null,null,null,null,null,null,null,null,null,null,null,null,null,null,null,null,null,null,null,null,null,null,null,null,null,null,null,null],[null,null,null,null,null,null,null,null,null,null,null,null,null,null,null,null,null,null,null,null,null,null,null,null,null,null,null,null,null,null,null,null,null],[null,null,null,null,null,null,null,null,null,null,null,null,null,null,null,null,null,null,null,null,null,null,null,null,null,null,null,null,null,null,null,null,null],[null,null,null,null,null,null,null,null,null,null,null,null,null,null,null,null,null,null,null,null,null,null,null,null,null,null,null,null,null,null,null,null,null]],"timingvisible":false,"tabcounter":34,"stave":1,"totalstaves":5,"instrument":"6guitar","selectedtuning":"6_standard","version":"13"}

Member for

1 week 3 days
Submitted by Jai Alonso on Fri, 2020-05-22 18:38