PRAC C-F

Chords

01234567891011121314151617181920212223
E
B
G
D
A
E
B
0 1 2 3 4 5 6 7 8 9 10 11 12 13 14 15 16 17 18 19 20 21 22 23
(/) Slide Up  (\) Slide Down  (h) Hammer On  (p) Pull Off  (b) Bend (r) Release (v) Vibrato

Stave 1:

E|-----------------5--7--8--8--7--5--------------------------------6--8--9--9--8--6-----------------
B|--------5--6--8--------------------8--6--5--------------6--7--9--------------------9--7--6--------
G|--5--7--------------------------------------7--5--6--8--------------------------------------8--6--
D|--------------------------------------------------------------------------------------------------
A|--------------------------------------------------------------------------------------------------
E|--------------------------------------------------------------------------------------------------

Stave 2:

E|------------------7--9--10--10--9--7-----------------------------------8--10--11--11--10--8-------------------
B|--------7--8--10----------------------10--8--7---------------8--9--11------------------------11--9--8---------
G|--7--9------------------------------------------9--7--8--10--------------------------------------------10--8--
D|--------------------------------------------------------------------------------------------------------------
A|--------------------------------------------------------------------------------------------------------------
E|--------------------------------------------------------------------------------------------------------------

Stave 3:

E|--------------------9--11--12--12--11--9----------------------------------------10--12--13--13--12--10----------------------
B|---------9--10--12------------------------12--10--9-----------------10--11--13--------------------------13--11--10----------
G|--9--11----------------------------------------------11--9--10--12--------------------------------------------------12--10--
D|----------------------------------------------------------------------------------------------------------------------------
A|----------------------------------------------------------------------------------------------------------------------------
E|----------------------------------------------------------------------------------------------------------------------------

							http://www.guitartabcreator.com
Instruments
{"strings":[[[".",".",".",".",".",5,7,8,8,7,5,".",".",".",".",".",".",".",".",".",".",6,8,9,9,8,6,".",".",".",".","."],[".",".",5,6,8,".",".",".",".",".",".",8,6,5,".",".",".",".",6,7,9,".",".",".",".",".",".",9,7,6,".","."],[5,7,".",".",".",".",".",".",".",".",".",".",".",".",7,5,6,8,".",".",".",".",".",".",".",".",".",".",".",".",8,6],[".",".",".",".",".",".",".",".",".",".",".",".",".",".",".",".",".",".",".",".",".",".",".",".",".",".",".",".",".",".",".","."],[".",".",".",".",".",".",".",".",".",".",".",".",".",".",".",".",".",".",".",".",".",".",".",".",".",".",".",".",".",".",".","."],[".",".",".",".",".",".",".",".",".",".",".",".",".",".",".",".",".",".",".",".",".",".",".",".",".",".",".",".",".",".",".","."]],[[".",".",".",".",".",7,9,10,10,9,7,".",".",".",".",".",".",".",".",".",".",8,10,11,11,10,8,".",".",".",".","."],[".",".",7,8,10,".",".",".",".",".",".",10,8,7,".",".",".",".",8,9,11,".",".",".",".",".",".",11,9,8,".","."],[7,9,".",".",".",".",".",".",".",".",".",".",".",".",9,7,8,10,".",".",".",".",".",".",".",".",".",".",".",".",10,8],[".",".",".",".",".",".",".",".",".",".",".",".",".",".",".",".",".",".",".",".",".",".",".",".",".",".",".",".",".",".",".","."],[".",".",".",".",".",".",".",".",".",".",".",".",".",".",".",".",".",".",".",".",".",".",".",".",".",".",".",".",".",".",".","."],[".",".",".",".",".",".",".",".",".",".",".",".",".",".",".",".",".",".",".",".",".",".",".",".",".",".",".",".",".",".",".","."]],[[".",".",".",".",".",9,11,12,12,11,9,".",".",".",".",".",".",".",".",".",".",10,12,13,13,12,10,".",".",".",".","."],[".",".",9,10,12,".",".",".",".",".",".",12,10,9,".",".",".",".",10,11,13,".",".",".",".",".",".",13,11,10,".","."],[9,11,".",".",".",".",".",".",".",".",".",".",".",".",11,9,10,12,".",".",".",".",".",".",".",".",".",".",".",".",12,10],[".",".",".",".",".",".",".",".",".",".",".",".",".",".",".",".",".",".",".",".",".",".",".",".",".",".",".",".",".",".",".","."],[".",".",".",".",".",".",".",".",".",".",".",".",".",".",".",".",".",".",".",".",".",".",".",".",".",".",".",".",".",".",".","."],[".",".",".",".",".",".",".",".",".",".",".",".",".",".",".",".",".",".",".",".",".",".",".",".",".",".",".",".",".",".",".","."]]],"numberofstrings":6,"notes":["E","B","G","D","A","E","B"],"capo":0,"stringnotes":["E4","B3","G3","D3","A2","E2"],"comments":["Stave 1:","Stave 2:","Stave 3:"],"timing":[["W","W","W","W","W","W","W","W","W","W","W","W","W","W","W","W","W","W","W","W","W","W","W","W","W","W","W","W","W","W","W","W"],["W","W","W","W","W","W","W","W","W","W","W","W","W","W","W","W","W","W","W","W","W","W","W","W","W","W","W","W","W","W","W","W"],["W","W","W","W","W","W","W","W","W","W","W","W","W","W","W","W","W","W","W","W","W","W","W","W","W","W","W","W","W","W","W","W"]],"timingvisible":false,"tabcounter":32,"stave":2,"totalstaves":3,"instrument":"6guitar","selectedtuning":"6_standard","version":"13"}

Member for

1 week 4 days
Submitted by Jai Alonso on Fri, 2020-05-22 17:55