CANON CHORUS

Chords
01234567891011121314151617181920212223
E
B
G
D
A
E
B
0 1 2 3 4 5 6 7 8 9 10 11 12 13 14 15 16 17 18 19 20 21 22 23
(/) Slide Up  (\) Slide Down  (h) Hammer On  (p) Pull Off  (b) Bend (r) Release (v) Vibrato

Stave 1:

E|-5-2-3-5-2-3-5-----------2-3-2-----2---------------
B|-------------------2-3-5-------3-5-----------------
G|---------------2-4-----------------------2-4-2---2-
D|-------------------------------------4-5-------5---
A|---------------------------------------------------
E|---------------------------------------------------

Stave 2:

E|---------------------------------------------------------2-3-5-
B|-3-2-3-------------------------------------2-3-----2-3-5-------
G|---------4-2-------------------2-4---4-2-4-----2-4-------------
D|-------5-----5-4-2-4-2---2-4-5-----5---------------------------
A|-----------------------5---------------------------------------
E|---------------------------------------------------------------

Stave 3:

E|-2-----2-------------2-----------------------------
B|---3-5---5-3-5-2-3-5---5-3-2-3---2-3---------------
G|-------------------------------4---------2-4-2---2-
D|-------------------------------------4-5-------5---
A|---------------------------------------------------
E|---------------------------------------------------

Stave 4:

E|---------------------------------------------------------------------
B|-3-2-3---3-2-------------------2-3---3-2-3-2-------2-3-5-2h3p2---2-3-
G|-------4-----4-2---2-------2-4-----4---------4-2-4-------------4-----
D|-----------------5---5-4-5-------------------------------------------
A|---------------------------------------------------------------------
E|---------------------------------------------------------------------

							http://www.guitartabcreator.com
Instruments
{"strings":[[[5,2,3,5,2,3,5,".",".",".",".",".",2,3,2,".",".",2,".",".",".",".",".",".","."],[".",".",".",".",".",".",".",".",".",2,3,5,".",".",".",3,5,".",".",".",".",".",".",".","."],[".",".",".",".",".",".",".",2,4,".",".",".",".",".",".",".",".",".",".",".",2,4,2,".",2],[".",".",".",".",".",".",".",".",".",".",".",".",".",".",".",".",".",".",4,5,".",".",".",5,"."],[".",".",".",".",".",".",".",".",".",".",".",".",".",".",".",".",".",".",".",".",".",".",".",".","."],[".",".",".",".",".",".",".",".",".",".",".",".",".",".",".",".",".",".",".",".",".",".",".",".","."]],[[".",".",".",".",".",".",".",".",".",".",".",".",".",".",".",".",".",".",".",".",".",".",".",".",".",".",".",".",2,3,5],[3,2,3,".",".",".",".",".",".",".",".",".",".",".",".",".",".",".",".",".",".",2,3,".",".",2,3,5,".",".","."],[".",".",".",".",4,2,".",".",".",".",".",".",".",".",".",2,4,".",4,2,4,".",".",2,4,".",".",".",".",".","."],[".",".",".",5,".",".",5,4,2,4,2,".",2,4,5,".",".",5,".",".",".",".",".",".",".",".",".",".",".",".","."],[".",".",".",".",".",".",".",".",".",".",".",5,".",".",".",".",".",".",".",".",".",".",".",".",".",".",".",".",".",".","."],[".",".",".",".",".",".",".",".",".",".",".",".",".",".",".",".",".",".",".",".",".",".",".",".",".",".",".",".",".",".","."]],[[2,".",".",2,".",".",".",".",".",".",2,".",".",".",".",".",".",".",".",".",".",".",".",".","."],[".",3,5,".",5,3,5,2,3,5,".",5,3,2,3,".",2,3,".",".",".",".",".",".","."],[".",".",".",".",".",".",".",".",".",".",".",".",".",".",".",4,".",".",".",".",2,4,2,".",2],[".",".",".",".",".",".",".",".",".",".",".",".",".",".",".",".",".",".",4,5,".",".",".",5,"."],[".",".",".",".",".",".",".",".",".",".",".",".",".",".",".",".",".",".",".",".",".",".",".",".","."],[".",".",".",".",".",".",".",".",".",".",".",".",".",".",".",".",".",".",".",".",".",".",".",".","."]],[[".",".",".",".",".",".",".",".",".",".",".",".",".",".",".",".",".",".",".",".",".",".",".",".",".",".",".",".",".",".",".",".",".",".",".","."],[3,2,3,".",3,2,".",".",".",".",".",".",".",".",".",2,3,".",3,2,3,2,".",".",".",2,3,5,2,"h",3,"p",2,".",2,3],[".",".",".",4,".",".",4,2,".",2,".",".",".",2,4,".",".",4,".",".",".",".",4,2,4,".",".",".",".",".",".",".",".",4,".","."],[".",".",".",".",".",".",".",".",5,".",5,4,5,".",".",".",".",".",".",".",".",".",".",".",".",".",".",".",".",".",".",".",".",".",".","."],[".",".",".",".",".",".",".",".",".",".",".",".",".",".",".",".",".",".",".",".",".",".",".",".",".",".",".",".",".",".",".",".",".",".",".","."],[".",".",".",".",".",".",".",".",".",".",".",".",".",".",".",".",".",".",".",".",".",".",".",".",".",".",".",".",".",".",".",".",".",".",".","."]]],"numberofstrings":6,"notes":["E","B","G","D","A","E","B"],"capo":0,"stringnotes":["E4","B3","G3","D3","A2","E2"],"comments":["Stave 1:","Stave 2:","Stave 3:","Stave 4:"],"timing":[[null,null,null,null,null,null,null,null,null,null,null,null,null,null,null,null,null,null,null,null,null,null,null,null,null],[null,null,null,null,null,null,null,null,null,null,null,null,null,null,null,null,null,null,null,null,null,null,null,null,null,null,null,null,null,null,null],[null,null,null,null,null,null,null,null,null,null,null,null,null,null,null,null,null,null,null,null,null,null,null,null,null],[null,null,null,null,null,null,null,null,null,null,null,null,null,null,null,null,null,null,null,null,null,null,null,null,null,null,null,null,null,null,null,null,null,null,null,null,null]],"timingvisible":false,"tabcounter":36,"stave":3,"totalstaves":4,"instrument":"6guitar","selectedtuning":"6_standard","version":"13"}

Member for

5 days 23 hours
Submitted by Jai Alonso on Fri, 2020-05-22 16:17