Sound will begin in 5 seconds

Then You Can Tell Me Goodbye

01234567891011121314151617181920212223
E
B
G
D
A
E
B
0 1 2 3 4 5 6 7 8 9 10 11 12 13 14 15 16 17 18 19 20 21 22 23
Song Science #1: How Pros Use 6 Chords to Write Hit Songs
(/) Slide Up  (\) Slide Down  (h) Hammer On  (p) Pull Off  (b) Bend (r) Release (v) Vibrato

Stave 1:

E|----------------------------------------------------------7-------------------------------
B|----------------------------8--10--12/10--8--------8--10------------------------12--15b15r
G|--------------------7--7/9----------------------9------------5/7------------12------------
D|---------------------------------------------------------------------12/14----------------
A|------------------------------------------------------------------------------------------
E|------------------------------------------------------------------------------------------

Stave 2:

E|---------------------------------12---------------------------8--10---------------
B|--12------------------10/12--15------15----------8--10b10r10---------10b10r10--8--
G|------12--14br14--12------------------------7/9-----------------------------------
D|----------------------------------------------------------------------------------
A|----------------------------------------------------------------------------------
E|----------------------------------------------------------------------------------

Stave 3:

E|--8--10--------------------------------------------------------------------10--10--
B|---------10b10r10--------------------5--5/8-----8v-----10-----8-----10b10----------
G|-------------------7--5--7--5--4--7------------------------9-----------------------
D|-----------------------------------------------------------------------------------
A|-----------------------------------------------------------------------------------
E|-----------------------------------------------------------------------------------

Stave 4:

E|---------10---------------------------------------
B|--10b10------10r---8------------------------------
G|----------------------7--7/9--7-------------------
D|---------------------------------7--7/9--7--------
A|--------------------------------------------7--5--
E|--------------------------------------------------

http://www.guitartabcreator.com
Guitar Tab Creator is intended to store guitar tab created through the tool. It currently does not support in-line text editing. Any text you place in here will be lost. If you need to comment on your tab, please use the "Tab Notes" section located below.