Sound will begin in 5 seconds

Satori Part 2 - Flower Travellin' Band

Chords
01234567891011121314151617181920212223
E
B
G
D
A
E
B
0 1 2 3 4 5 6 7 8 9 10 11 12 13 14 15 16 17 18 19 20 21 22 23
Song Science #1: How Pros Use 6 Chords to Write Hit Songs
(/) Slide Up  (\) Slide Down  (h) Hammer On  (p) Pull Off  (b) Bend (r) Release (v) Vibrato

Stave 1:

E|------------------------------------------------------------------------------------------------------
B|------------------------------------------------------------------------------------------------------
G|------------------------------------------------------------------------------------------------------
D|--5/15--14h15p14p12--14--14--12--12h14h15p14p12--14--14h15p14p12--14h15p14p12--14h15v--14h15p14p12\6--
A|------------------------------------------------------------------------------------------------------
E|------------------------------------------------------------------------------------------------------

Stave 2:

E|----------------------------------------------------------------------------
B|----------------------------------------------------------------------------
G|----------------------------------------------------------------------------
D|--6h7p6p4--4/6--6h7p6-----4--4/6--6h7p6p4--4/7v--7h8p7v--7h8p7\5/15v--14h15p
A|----------------------------------------------------------------------------
E|----------------------------------------------------------------------------

Stave 3:

E|-------------------------------------------------------------------------------------------------------
B|-------------------------------------------------------------------------------------------------------
G|-------------------------------------------------------------------------------------------------------
D|--14--12--12h14p12--10h12--12v--15--14h15p14--12--12h14p12--10--12--15--14h15p14--12--12h14p12--10h12--
A|-------------------------------------------------------------------------------------------------------
E|-------------------------------------------------------------------------------------------------------

Stave 4:

E|----------------------------------------------------------------------------------------------------
B|----------------------------------------------------------------------------------------------------
G|----------------------------------------------------------------------------------------------------
D|--15--14h15p14--12h14p12--10h12p10--12v--14--12/8--10--12\5-----------------------------------------
A|----------------------------------------------------------------------------------------------------
E|----------------------------------------------------------------------------------------------------

Stave 5:

E|------------------------------------------------------------------------------------------------------
B|------------------------------------------------------------------------------------------------------
G|------------------------------------------------------------------------------------------------------
D|--5/15--14h15p14--12h14p12--10h12p10--12--------------------------------------------------------------
A|------------------------------------------------------------------------------------------------------
E|------------------------------------------------------------------------------------------------------

Stave 6:

E|-------------------------------------------------------------------------------------------------------
B|--6--6--6----------------------------------------------------------------------------------------------
G|--7--7--7----------------------------------------------------------------------------------------------
D|--7--7--7--5/15v--14h15p14--12h14--14p12v--12h14h15p14--12--14--14--12h14h15p14h15--12\7--7h8p7--5--7--
A|--5--5--5----------------------------------------------------------------------------------------------
E|-------------------------------------------------------------------------------------------------------

Stave 7:

E|------------------------------------------------------------------------------------------
B|------------------------------------------------------------------------------------------
G|------------------------------------------------------------------------------------------
D|--7h8p7--5--7--7h8p7--7h8p7\5/15p14h15p14--12h14p12--10h12--15p14h15p14--12h14p12--10h12--
A|------------------------------------------------------------------------------------------
E|------------------------------------------------------------------------------------------

Stave 8:

E|------------------------------------------------------------------------------------------------------
B|------------------------------------------------------------------------------------------------------
G|------------------------------------------------------------------------------------------------------
D|--20p19h20p19--17h19p17--15h17--15--20p19h20p19--17h19p17--15h17--15p14h15p14--12h14p12--10h12--12h14p
A|------------------------------------------------------------------------------------------------------
E|------------------------------------------------------------------------------------------------------

Stave 9:

E|-------------------------------------------------------------------------------------------------------
B|-------------------------------------------------------------------------------------------------------
G|-------------------------------------------------------------------------------------------------------
D|--12\5-----------------------------------------5/15p14h15p14--12h14p12--10h12--------------------------
A|-------------------------------------------------------------------------------------------------------
E|-------------------------------------------------------------------------------------------------------

Stave 10:

E|--------------------------
B|--------------------------
G|--7-----------------------
D|--7-----------------------
A|--5-----------------------
E|--6-----------------------

http://www.guitartabcreator.com
Guitar Tab Creator is intended to store guitar tab created through the tool. It currently does not support in-line text editing. Any text you place in here will be lost. If you need to comment on your tab, please use the "Tab Notes" section located below.