Sound will begin in 5 seconds

Baby's first guitar solo

Chords
01234567891011121314151617181920212223
E
B
G
D
A
E
B
0 1 2 3 4 5 6 7 8 9 10 11 12 13 14 15 16 17 18 19 20 21 22 23
Song Science #1: How Pros Use 6 Chords to Write Hit Songs
(/) Slide Up  (\) Slide Down  (h) Hammer On  (p) Pull Off  (b) Bend (r) Release (v) Vibrato

(W|WW) Whole (H|HH) Half (Q|QQ) Quarter (E|EE) 8th (S|SS) 16th (T|TT) 32nd (X|XX) 64th

Stave 1:
t: SS SS EE SS SS SS S SS SS EE EE SS SS S S SS SS S S
E|-------------------------------------------------------------------------------------------------
B|-------------------------------------------------------------------------------------------------
G|--------------------------------10-----------------------------10--------------------------------
D|--11-----------11-----------10------10-----10-----8h10--11---------11--11p10--8--8--10h11--8--8--
A|-------------------------------------------------------------------------------------------------
E|-------------------------------------------------------------------------------------------------

Stave 2:
t: EE S S SS SS S SS SS SS SS SS SS SS SS SS EE EE SS SS SS SS SS SS EE SS SS SS SS
E|--------------------------------------------------------------------------------------------------
B|----------------------------------------------------11--11-------------------------11-------------
G|--10-----------10--------10------10h11p10h11p10h11--10--10--10h11p10h11p10h11--13------13p11--10--
D|------8--8h10------8h10--8---10-------------------------------------------------------------------
A|--------------------------------------------------------------------------------------------------
E|--------------------------------------------------------------------------------------------------

Stave 3:
t: EE EE SS SS SS SS SS SS SS SS SS SS SS SS SS SS SS SS SS SS SS SS SS SS SS SS
E|--------------------------------------------------------------------------------------------------------
B|--11--11--11--------------------------------------------------------------------------------------------
G|--10--10------13p11--10------10-------------------------------------------------------------------------
D|-------------------------13------13--11p10------------------10---------------10------------------10h11--
A|--------------------------------------------13p11h13------------13p11h13---------13p11h13p11h13---------
E|--------------------------------------------------------------------------------------------------------

Stave 4:
t: Q QQ Q QQ QQ QQ HH
E|--------------------------
B|----------------------11--
G|--------8h10--11--13------
D|--8h11--------------------
A|--------------------------
E|--------------------------

http://www.guitartabcreator.com
Guitar Tab Creator is intended to store guitar tab created through the tool. It currently does not support in-line text editing. Any text you place in here will be lost. If you need to comment on your tab, please use the "Tab Notes" section located below.