...

(/) Slide Up  (\) Slide Down  (h) Hammer On  (p) Pull Off  (b) Bend (r) Release (v) Vibrato

Stave 1:

E|---5-----5-----5-----6-----6-----6-------------8-
B|-----7-----7-----7-----7-----7-----7---5-----5---
G|-0-----0-----0-----0-----0-----0-----0---0-0-----
D|-------------------------------------------------
A|-------------------------------------------------
E|-------------------------------------------------

Stave 2:

E|-----------------------
B|-----------------------
G|-----------------------
D|-----7-----7-----6-----
A|---5-----5-----7---5---
E|-7-----7-----0-------0-

http://www.guitartabcreator.com
Guitar Tab Creator is intended to store guitar tab created through the tool. It currently does not support in-line text editing. Any text you place in here will be lost. If you need to comment on your tab, please use the "Tab Notes" section located below.