Sound will begin in 5 seconds

Bendita la Cruz Puente

01234567891011121314151617181920212223
E
B
G
D
A
E
B
0 1 2 3 4 5 6 7 8 9 10 11 12 13 14 15 16 17 18 19 20 21 22 23
(/) Slide Up  (\) Slide Down  (h) Hammer On  (p) Pull Off  (b) Bend (r) Release (v) Vibrato

Stave 1:

E|---------17--19-------------------------------------------------14------17v--
B|--7--10----------15--17--17b19--17--15----------14--15--15--17------17-------
G|----------------------------------------16--16-------------------------------
D|-----------------------------------------------------------------------------
A|-----------------------------------------------------------------------------
E|-----------------------------------------------------------------------------

Stave 2:

E|--17--19--14------------------------------------------------------------------------14------
B|--------------17--17b19--17--15------15--17--17b19--17--15----------14------15--17------17--
G|---------------------------------16-------------------------16--16------16------------------
D|--------------------------------------------------------------------------------------------
A|--------------------------------------------------------------------------------------------
E|--------------------------------------------------------------------------------------------

Stave 3:

E|--17------17------15------15------14------14------14------14------
B|------15------15------15------15------15------15------15------15--
G|------------------------------------------------------------------
D|------------------------------------------------------------------
A|------------------------------------------------------------------
E|------------------------------------------------------------------

http://www.guitartabcreator.com
Guitar Tab Creator is intended to store guitar tab created through the tool. It currently does not support in-line text editing. Any text you place in here will be lost. If you need to comment on your tab, please use the "Tab Notes" section located below.